Back Street Kid

Magnum

A
123
X02220
B
234
X24442
D
123
XX0232
E
123
022100
G
123
320003
Tono: G





                     (transcribed in
 a hurry by mEeK)




He had eyes of the poor wild and 
hungry
Stood outside of the store shy and 
clumsy
Saw an electric guitar he got hooked
 from the start
That's what it did
To the back street kid

E||--------------|--------------|----------------------|----------------------|
B||--------------|--------------|--6----6----5----5----|----------------------|
G||--------10----|--------10----|--5----5----5----5----|------------5---------|
D||--10----10----|--10----10----|--5----5----5----5----|--x----x----5----x----|
A||--10----8-----|--10----8-----|----------------------|--x----x----3----x----|
E||--8-----------|--8-----------|----------------------|----------------------|




------------|---------------------
------------|---------------------
--5----5----|--2---------5--------
--5----5----|--2----3----5----x---
--3----3----|--0----3----3----x---
------------|-------1-------------

-|-|----------------------| 
-|-|----------------------| 
-|-|-------5--------------| 
-|-|--x----5----x----x----| 
-|-|--x----3----x----x----| 
-|-|----------------------| 



            --> It's a dangerous 

 |game....... 


----------------------|----------- ----------------------|----------- --5---------5---------|----------- --5----x----5----3----|--5----3--- --3----x----3----3----|--5----3--- -----------------1----|--3----1--- -|-----------|---------------------- -|-----------|---------------------- -|------5----|------------5--------- -|-3----5----|--x----x----5----x---- -|-3----3----|--x----x----3----x---- -|-1---------|---------------------- ----------------------|--1-------- ----------------------|--1-------- -------5---------5----|--2----5--- --x----5----x----5----|--3----5--- --x----3----x----3----|--3----3--- ----------------------|--1-------- -|-----------|------------1----|-- -|-----------|-------6----1----|-- -|-----------|--7---------2----|-- -|------7----|------------3----|-- -|-5---------|------------3----|-- -|-----------|------------1----|-- -|------------| -|------------| -|------10----| -|10----10----| -|10----8-----| -|8-----------| --------------|------|| --------------|------|| --------10----|------|| --10----10----|------|| --10----8-----|------|| --8-----------|------|| Dream, dream, back street kid: E||----------------------|----------------------|----------------------| B||-----------------6----|----------------------|-------6--------------| G||--5--------------5----|--x----x----5---------|-------5----x----x----| D||--5----x----x----7----|--x----x----5----x----|--x----7----x----x----| A||--3----x----x----0----|--0----0----3----x----|--x----0----0----0----| E||----------------------|----------------------|----------------------| ------------|------|| ------------|------|| ------------|------|| --3----5----|------|| --3----5----|------|| --1----3----|------|| E||-----------------|| B||-------6---------|| G||--5----5----5----|| D||--5----7----5----|| A||--3----0----3----|| E||-----------------|| And bla, bla, bla, bla..... listen to the record, all riff parts is in this file. The end goes: E||----------------------|----------------------|----------------------| B||-----------------6----|----------------------|-------6--------------| G||--5--------------5----|--x----x----5---------|-------5----x----x----| D||--5----x----x----7----|--x----x----5----x----|--x----7----x----x----| A||--3----x----x----0----|--0----0----3----x----|--x----0----0----0----| E||----------------------|----------------------|----------------------| ----------------|------|| -6-----------6--|------|| -5--------5--5--|------|| -7----5---5--7--|------|| -0----5---3--0--|------|| ----------------|------|| Cya!
Composición: Tony ClarkinColaboración y revisión: