Outro

M83

Bm
234
X24432
D
123
XX0232
Em
12
022000
G
123
320003
Tono: G
Intro 2x: D Em Bm G D
          D Em Bm G D

D    Em    Bm      G              D
           I'm the king of my own land,

D             Em          Bm         G               D
       Facing tempests of dust, I'll fight until the end,

D                             Em           Bm            G      D
       Creatures of my dreams raise up and dance with me!

D       Em    Bm            G       D
Now and forever... I'm your kiiiiiiing!

#1t1##1t2#D|- Em - Bm - G (etc...)#/1t2##/1t1#

#2t1##2t2#E|--------7--------5-----5-------------------------------------|
B|--8--7-----7--------8-----8--7--8--7-------------------------|
G|--------------7-----------------------7----------------------|
D|-------------------------------------------------------------|
A|-------------------------------------------------------------|
D|-------------------------------------------------------------|#/2t2##/2t1#

#3t1##3t2#E|--------------7--------5-----5-------------------------------|
B|--7--7--8--7-----7--------8-----8--7--8--7-------------------|
G|--------------------7-----------------------7----------------|
D|-------------------------------------------------------------|
A|-------------------------------------------------------------|
D|-------------------------------------------------------------|#/3t2##/3t1#

#4t1##4t2#E|-------------------------------------------------------------|
B|-------------------------------------------------------------|
G|-------------------------------------------------------------|
D|-----7------7-----7-----7------------------------------------|
A|--9-----10-----7-----9---------------------------------------|
D|-------------------------------------------------------------|#/4t2##/4t1#
Composición: Anthony Gonzalez / Brad Laner / Justin Meldal-Johnsen / Morgan Kibby / Yan GonzalezColaboración y revisión: Gabriel NunesGabriel Alves