Olha Pro Céu

Luiz Gonzaga

A7
12
X02020
B7
1234
X21202
Bb
234
X13331
Bm7
34
X24232
C/G
1234
332X1X
C7
1234
X3231X
D
123
XX0232
D#º
1234
XX1212
D7
123
XX0212
Dm
123
XX0231
12
XX0101
E7
1
0X0010
Em
12
022000
F
234
133211
F#º
1234
2X121X
G
123
320003
G#º
1234
4X343X
Gm
34
355333
Tono: G
[Intro] G  G#º  D  Bm7  E7  A7  

D  Bb  A7


E|-------------------------------
B|-----------------3-------------
G|-------0-2-4-3-4-----4-2-1-2---
D|-0-2-4-------------------------
A|-------------------------------
E|-------------------------------

E|-----------------------------| 
B|-----------------------------| 
G|--------4-2-0----------------| 
D|4-2-1-2-------2-0------------| 
A|---------------------0--1--0-| 
E|-------------------4---------| 


[Primeira Parte]

Dm          Gm       Dm
Olha pro céu,  meu amor
 D7               F#º  Gm
Vê como ele está lin_do
C7                  F
Olha praquele balão   multicor
 Dm         Gm       A7
Como no céu   vai sumindo

[Refrão] D Foi numa noite, igual a esta D#º Em Que tu me deste o teu coração A7 Em O céu estava, assim em festa A7 D Porque era noite de São João F#º C/G B7 Havia balões no ar Em B7 Em D7 Xóte, baião no salão G G#º E no terreiro D Bm7 E7 A7 O teu olhar, que incendiou D Meu coração Olha pro céu [Final] G G#º D Bm7 E7 A7 D Bb A7 D
Composición: José Fernandes / Luiz GonzagaColaboración y revisión: Gabriel SilvaIsamu WatanabeMoesio ReisMarcos Pauloy más 3

Utilizamos cookies para personalizar sua experiência. Ao acessar o site, você concorda com a nossa Política de Privacidade.