Despacito

Luis Fonsi

A
123
X02220
Bm
234
X24432
D
123
XX0232
G
123
320003
Tono: G
[Intro]


(Arpejo 01)
   Bm                 G           
E|------2-------2---|-----3-------
B|--------3-------3-|-------3-----
G|----4-------4-----|---0-------0-
D|------------------|-------------
A|-2--------2-------|-------------
E|------------------|-3-------3---
        D                 A
E|3---|-----3-------3---|-----0-----
B|--3-|-------2-------2-|-------2---
G|----|---3-------3-----|---2-------
D|----|-0-------0-------|-----------
A|----|-----------------|-0-------0-
E|----|-----------------|-----------

E|--0---| 
B|----2-| 
G|2-----| 
D|------| 
A|------| 
E|------| 



(Arpejo 02)
   Bm                G            
E|-2---2-------2---|-3---3-------
B|-3-----3-------3-|-3-----3-----
G|-4-4-------4-----|-0-0-------0-
D|-4---------------|-0-----------
A|-2-------2-------|-0-----------
E|-----------------|-3-------3---
       D                 A
E|3---|-3---3-------3---|-0----0-------0---| 
B|--3-|-2-----2-------2-|-2------2-------2-| 
G|----|-3-3-------3-----|-2-2--------2-----| 
D|----|-0-------0-------|-2----------------| 
A|----|-----------------|-0--------0-------| 
E|----|-----------------|------------------| 



E|-7-10-9-7----7-|-7-9-10-12-14-
B|-7--------10---|--------------
G|-7-------------|--------------
D|---------------|--------------
A|---------------|--------------
E|---------------|--------------

E|---14----14----|------10---9---7----------| 
B|15----15----15-|--------------------------| 
G|---------------|-9/11----9---7------------| 
D|---------------|--------------------------| 
A|---------------|--------------------------| 
E|---------------|--------------------------| 



E|---10-9-7------|---10-9-7-9-10-
B|-7--------10-8-|-8-------------
G|---------------|---------------
D|---------------|---------------
A|---------------|---------------
E|---------------|---------------

E|---|----10-9-10-12-9-|------10---9---7---| 
B|10-|-10--------------|-------------------| 
G|---|-----------------|-9/11----9---7-----| 
D|---|-----------------|-------------------| 
A|---|-----------------|-------------------| 
E|---|-----------------|-------------------| 


[Primeira Parte]

Bm                            G
Si,sabes que ya llevo rato mirándote
 D                        A
Tengo que bailar contigo hoy
 Bm                       
Vi que tu mirada ya estaba 
     G
llamándome
 D                          A
Muéstrame el camino que yo voy

 Bm                            
Tú, tú eres el imán y yo soy el 
    G
metal
Me voy acercando y voy armando el 
  D
plan
Solo con pensarlo se acelera el 
 A
pulso
Bm                              
Ya, ya me está gustando más de lo 
   G
normal
                                 D
Todos mis sentidos van pidiendo más
Esto hay que tomarlo sin ningún 
  A
apuro

[Refrão]

      Bm
Despacito, quiero respirar
                G
Tu cuello despacito
                           D
Deja que te diga cosas al oído

Para que te acuerdes
                A
Si no estás conmigo
      Bm
Despacito quiero desnudarte
              G
A besos despacito

Firmo en las paredes
           D
De tu laberinto

Y hacer de tu cuerpo
           A
Todo un manuscrito

Sube sube

Sube, sube, sube

[Ponte]

  Bm
Quiero ver bailar tu pelo
                  G
Quiero ser tu ritmo
                     D
Que le enseñes a mi boca
                 A
Tus lugares favoritos
 Bm
Déjame sobrepasar
G Tus zonas de peligro D Hasta provocar tus gritos A Y que olvides tu apellido ( Bm G D A ) [Segunda Parte] Bm Si te pido un beso ven dámelo Yo sé que estás pensándolo G Llevo tiempo intentándolo Mami esto es dando y dándolo D Sabes que tu corazón Conmigo te hace bam bam A Sabes que esa beba Está buscando de mi bam bam Bm Ven prueba de mi boca Para ver como te sabe G Quiero quiero quiero Ver cuanto amor a ti te cabe D Yo no tengo prisa yo Me quiero dar el viaje A Empecemos lento Después salvaje [Pré-Refrão] Bm Pasito a pasito, suave suavecito G Nos vamos pegando, poquito a poquito D Y es que esa belleza es un rompecabezas A Pero pa montarlo aquí tengo la piesa Bm Pasito a pasito, suave suavecito G Nos vamos pegando, poquito a poquito D Y es que esa belleza es un rompecabezas A Pero pa montarlo aquí tengo la pieza [Refrão] Bm Despacito, quiero respirar G Tu cuello despacito D Deja que te diga cosas al oído Para que te acuerdes A Si no estás conmigo Bm Despacito quiero desnudarte G A besos despacito Firmo en las paredes D De tu laberinto Y hacer de tu cuerpo A Todo un manuscrito Sube sube Sube, sube, sube [Ponte] Bm Quiero ver bailar tu pelo G Quiero ser tu ritmo D Que le enseñes a mi boca A Tus lugares favoritos Bm Déjame sobrepasar G Tus zonas de peligro D Hasta provocar tus gritos A Y que olvides tu apellido [Refrão Final] Bm Despacito Vamos a hacerlo en G Una playa en Puerto Rico Hasta que las olas D Griten Ay Bendito Para que mi sello A Se quede contigo Bm Pasito a pasito Suave suavecito G Nos vamos pegando Poquito a poquito D Que le enseñes a mi A Boca Tus lugares favoritos Bm Pasito a pasito, suave suavecito G Nos vamos pegando, poquito a poquito D Hasta provocar tus gritos A Y que olvides tu apellido
Composición: Erika Ender / Luis FonsiColaboración y revisión: Gabriel SilvaLeandro Sandimdedja silvaMelanie Vicentey más 2
videoclase Despacito (aula de violão completa)

Utilizamos cookies e outras tecnologias semelhantes para melhorar e personalizar sua experiência de uso. Ao navegar nos produtos, você concorda com as condições descritas em nossa Política de Privacidade.