Din Din Din (part. MC Pupio e MC Doguinha)

Ludmilla

Am
123
X02210
Dm
123
XX0231
Gm
34
355333
Tono: Bb(forma del acorde en el tono de A)
[Intro] Dm  Gm  Am
        Dm  Gm  Am


E|-10~--10-10--10-10-10-----------
B|--------------------------------
G|--------------------------------
D|--------------------------------
A|--------------------------------
E|--------------------------------



E|-10-10-10-10-12-13-12-10-12-13-
B|-------------------------------
G|-------------------------------
D|-------------------------------
A|-------------------------------
E|-------------------------------

E|12-10-12-13-12-10--| 
B|-------------------| 
G|-------------------| 
D|-------------------| 
A|-------------------| 
E|-------------------| 



E|--------13-17-12--12-12-13-12-
B|-10-11~-----------------------
G|------------------------------
D|------------------------------
A|------------------------------
E|------------------------------

E|10-12-10~-----------| 
B|--------------------| 
G|--------------------| 
D|--------------------| 
A|--------------------| 
E|--------------------| 



E|-10-12-13-12-10-12-13-12-10-12-
B|-------------------------------
G|-------------------------------
D|-------------------------------
A|-------------------------------
E|-------------------------------

E|13-12-10-----------| 
B|-------------------| 
G|-------------------| 
D|-------------------| 
A|-------------------| 
E|-------------------| 



E|--------13-17-12--12-12-13-12-
B|-10-11~-----------------------
G|------------------------------
D|------------------------------
A|------------------------------
E|------------------------------

E|10-12-10~-----------| 
B|--------------------| 
G|--------------------| 
D|--------------------| 
A|--------------------| 
E|--------------------| 


[Refrão]

Dm                             
 Já vou logo avisando que eu não 
             Gm
tenho namorado
         Am                       Dm
Din din din, pode dar em cima de mim
         Am                       Dm
Din din din, pode dar em cima de mim

Dm
 Tá com ciúme, tá com ciúme?
Pega na mão e assume
Tá com ciúme, tá com ciúme?
Pega na mão

[Primeira Parte]

Dm                                
 O teu tempo tá passando e tu não 
             Gm
toma uma atitude
                Am             Dm
Vou ter que ativar o meu modo Lud
Feito um tapa na cara, essa é rápida
         Gm
 e esperta
                   Am           
Vê se não fica moscando e receba 
           Dm
essa indireta

[Pré-Refrão]

Meu chiclete favorito é o sabor de 
   Gm
cereja
                  Am
Se não for pedir muito (han!)
                  Dm
Cala a boca e me beija

[Refrão]

Eu já tô avisando que eu não tenho Gm namorado Am Dm Din din din, pode dar em cima de mim Am Dm Din din din, pode dar em cima de mim Dm Tá com ciúme, tá com ciúme? Pega na mão e assume Tá com ciúme, tá com ciúme? Pega na mão, pega na mão Pega na mão e assume Pega na mão, pega na mão Pega na mão e assume Pega na mão, pega na mão Pega na mão e assume [Solo] Dm Gm Am E|-10--10-12-13-12-10-12-13-12-10- B|-------------------------------- G|-------------------------------- D|-------------------------------- A|-------------------------------- E|-------------------------------- E|12-13-12-10-------| B|------------------| G|------------------| D|------------------| A|------------------| E|------------------| E|--------13-17-12--12-12-13-12- B|-10-11~----------------------- G|------------------------------ D|------------------------------ A|------------------------------ E|------------------------------ E|10-12-10~-----------| B|--------------------| G|--------------------| D|--------------------| A|--------------------| E|--------------------| [Refrão] Dm Eu já tô avisando que não tenho Gm namorada Am Dm Din din din, pode dar em cima de mim Am Dm Din din din, pode dar em cima de mim Dm Tá com ciúme, tá com ciúme? Pega na mão e assume Tá com ciúme, tá com ciúme? Pega na mão, pega na mão [Segunda Parte] Dm Então se liga aí, menina, olha o Gm que eu vou te dizer Am Me apresenta sua amiga, que eu não Dm quero mais você De tanto que me enrolou, agora vou Gm te falar Am Eu já peço desculpa, sua amiga eu Dm vou pegar [Pré-Refrão] Meu chiclete preferido é o sabor de Gm cereja Am Se não for pedir muito Dm Cala a boca e me beija [Refrão] Eu já tô avisando que não tenho Gm namorada Am Dm Din din din, pode dar em cima de mim Am Dm Din din din, pode dar em cima de mim Dm Tá com ciúme, tá com ciúme? Pega na mão e assume Tá com ciúme, tá com ciúme? Pega na mão, pega na mão Pega na mão e assume Pega na mão, pega na mão Pega na mão e assume [Refrão] Dm Eu já tô avisando que eu não Gm tenho namorado Am Dm Din din din, pode dar em cima de mim Am Dm Din din din, pode dar em cima de mim Dm Tá com ciúme, tá com ciúme? Pega na mão e assume Tá com ciúme, tá com ciúme? Pega na mão, pega na mão Pega na mão e assume Pega na mão, pega na mão Pega na mão e assume Pega na mão, pega na mão Pega na mão e assume Dm Am Din din din, pode dar em cima de Dm mim
Composición: Ludmilla / Mc Doguinha / MC PupioColaboración y revisión: Thiago Almeida

Utilizamos cookies para personalizar sua experiência. Ao acessar o site, você concorda com a nossa Política de Privacidade.