Tono: G
#1t1#
   Intro and Verse
#1t2#e|-2----2----0-|
B|-3----3----2-|
G|-2----4----2-|
D|-0----4----2-|
A|------2----0-|
E|-------------|#/1t2##/1t1#
 
#2t1# Pre-Chorus
#2t2#e|--------|
B|--------|
G|-1----2-|
D|-2----2-|
A|-2----2-|
E|-0----0-|#/2t2##/2t1#

#3t1#  Chorus
#3t2#e|-2----0----3----2----4----------------|
B|-3----2----0----2----5----------------|
G|-2----2----0----2----4----1----2----1-|
D|-0----2----0----2----6----2----2----2-|
A|-----------2----4----4----2----2----2-|
E|-----------3----2---------0----0----0-|#/3t2##/3t1#


#4t1# End
#4t2#e|-2--|
B|-3--|
G|-2--|
D|-0--|
A|----|
E|----|#/4t2##/4t1#

Composición: Los PiojosColaboración y revisión: