Ven Aqui

Los Bunkers

A7
12
X02020
Adim
1234
5X454X
Am
123
X02210
C
123
X32010
Csus4
134
X3301X
Dm
123
XX0231
F
234
133211
Gm
34
355333
Gm7
1234
3X333X
Tono: G
Intro: 
 
#1t1#   Dm          A7                    Gm                              C                Dm 
#1t2#|-----------------------------|      |------------------------------------------------------------| 
|-----------------------------|      |------------------------------------------------------------| 
|-----------------------------| (x2) |------------------------------------------------------------| 
|-----------------------------|      |----------------------------------------2--------------2---| 
|--5-5--7-8----4-4--5-7-|            |--5-5--7-8---5-5--7-8---3-3---5-------3-3---5-----| 
|-----------------------------|      |------------------------------------------------------------| #/1t2##/1t1#
 
Se repite la Intro 2 veces 
 
     Dm 
1. Si no hay nadie a quien quieras hablar 
                 Gm7              Csus4  C 
por esta noche llámame,   wo oh oh 

1. No te quedes quieta ni un segundo 
tras mi puerta otra vez, wo oh oh 

    Dm                              Gm 
2. Ven aquí, no sabes cuánto te esperé 
              C         Dm 
ooh!,  las noches que no me dormí 
                        Gm 
no sabes que es morir después 
           C 
ooh!, de estar borracho y sólo por ti 
 
Inter:  Figura de la Intro (x2) 

1. No hay muchas razones para hablar 
de lo que pueda suceder, ésta vez 

1. Sé que te has cansado de planear 
siempre tu vida sin querer, sin querer 

2. Ven aquí, no sabes cuanto te esperé 
oh las noches que no me dormí 
no sabes que es morir después 
          C                    F 
oh!, de haber vivido por ti alguna vez 

    Adim                Gm 
3. Y no saber que hacer 
Am                    F 
antes del amanecer 
Adim            Gm 
y yo no sé perder 
           C 
eh eh eh, eh eh eh! 
 
Solo 
 
2. Ven aquí, no sabes cuánto te esperé 
oh las noche que no me dormí 
no sabes que es morir después 
oh, de estar borracho y sólo por ti 
                    Gm 
no sabes cuánto te esperé 
      C  Dm 
wouo wouoooo! 
 
Fin:    Gm - C 
        Dm -  A7 - Dm - A7 - Gm - C - Dm 
        Dm -  A7 - Dm - A7 - Gm - C 
        Termina en Dm 
 
Acordes: 
 
#2t1#   Csus4     Adim 
#2t2#|----3------------2------| 
|----6------------1------| 
|----5------------2------| 
|----5------------1------| 
|----3------------x------| 
|----3------------x------|#/2t2##/2t1#
Composición: DuránColaboración y revisión: