Somewhere I Belong

Linkin Park

A5
134
577XXX
B5/F#
3
P224XXX
D5/A
3
P557XXX
E5
0P22XXX
G5
134
355XXX
Tono: G
Introdução – Parte 1:


Eb|---------5---------------------
Bb|----7--7----7------------------
Gb|-4-----------------------------
Db|-------------------------------
Ab|-------------------------------
Eb|-------------------------------

E|---------------------|       
B|---------------------|       
G|---------------------|  (8x) 
D|---------------------|       
A|---------------------|       
E|---------------------|       



Introdução – Parte 2: B5/F#  D5/A  
G5  E5
                      B5/F#  D5/A  

A5  E5


Eb|-------------------------------
Bb|-------------------------------
Gb|-8-8-8-8-8-8-8-8-9-9-9-9-9-9-9-
Db|-------------------------------
Ab|-6-6-6-6-6-6-6-6-7-7-7-7-7-7-7-
Eb|-------------------------------

E|---------------------| 
B|---------------------| 
G|9--------------------| 
D|---------------------| 
A|7--------------------| 
E|---------------------| 



Eb|-------------------------------
Bb|-------------------------------
Gb|-11-11-11-11-11-11-11-11-9-9-9-
Db|-------------------------------
Ab|-9--9--9--9--9--9--9--9--7-7-7-
Eb|-------------------------------

E|---------------------| 
B|---------------------| 
G|9-9-9-9-9------------| 
D|---------------------| 
A|7-7-7-7-7------------| 
E|---------------------| 



Eb|-------------------------------
Bb|-------------------------------
Gb|-8-8-8-8-8-8-8-8-9-9-9-9-9-9-9-
Db|-------------------------------
Ab|-6-6-6-6-6-6-6-6-7-7-7-7-7-7-7-
Eb|-------------------------------

E|---------------------| 
B|---------------------| 
G|9--------------------| 
D|---------------------| 
A|7--------------------| 
E|---------------------| 



Eb|-------------------------------
Bb|-------------------------------
Gb|-6-6-6-6-6-6-6-6-4-4-4-4-4-4-4-
Db|-------------------------------
Ab|-4-4-4-4-4-4-4-4-2-2-2-2-2-2-2-
Eb|-------------------------------

E|---------------------| 
B|---------------------| 
G|4-4~~----------------| 
D|---------------------| 
A|2-2~~----------------| 
E|---------------------| 



Primeira Parte:

(When this began)
I had nothing to say
And I get lost in the nothingness 
inside of me

(I was confused)
And I let it all out to find
That I'm not the only person
With these things in mind

(Inside of me)
But all the vacancy the words 
revealed
Is the only real thing
That I've got left to feel

(Nothing to lose)
Just stuck, hollow and alone
And the fault is my own
And the fault is my own



Primeiro Refrão:

Eb|-------------------------------
Bb|-------------------------------
Gb|-8-8-8-8-8-8-8-8-9-9-9-9-9-9-9-
Db|-------------------------------
Ab|-6-6-6-6-6-6-6-6-7-7-7-7-7-7-7-
Eb|-------------------------------

E|---------------------| 
B|---------------------| 
G|9--------------------| 
D|---------------------| 
A|7--------------------| 
E|---------------------| 



Eb|-------------------------------
Bb|-------------------------------
Gb|-11-11-11-11-11-11-11-11-9-9-9-
Db|-------------------------------
Ab|-9--9--9--9--9--9--9--9--7-7-7-
Eb|-------------------------------

E|---------------------| 
B|---------------------| 
G|9-9-9-9-9------------| 
D|---------------------| 
A|7-7-7-7-7------------| 
E|---------------------| 



Eb|-------------------------------
Bb|-------------------------------
Gb|-8-8-8-8-8-8-8-8-9-9-9-9-9-9-9-
Db|-------------------------------
Ab|-6-6-6-6-6-6-6-6-7-7-7-7-7-7-7-
Eb|-------------------------------

E|---------------------| 
B|---------------------| 
G|9--------------------| 
D|---------------------| 
A|7--------------------| 
E|---------------------| 



Eb|-------------------------------
Bb|-------------------------------
Gb|-11-11-11-11-11-11-11-11-9-9-9-
Db|-------------------------------
Ab|-9--9--9--9--9--9--9--9--7-7-7-
Eb|-------------------------------

E|---------------------| 
B|---------------------| 
G|9-9-9-9-9------------| 
D|---------------------| 
A|7-7-7-7-7------------| 
E|---------------------| 



Eb|-------------------------------
Bb|-------------------------------
Gb|-8-8-8-8-8-8-8-8-9-9-9-9-9-9-9-
Db|-------------------------------
Ab|-6-6-6-6-6-6-6-6-7-7-7-7-7-7-7-
Eb|-------------------------------

E|---------------------| 
B|---------------------| 
G|9--------------------| 
D|---------------------| 
A|7--------------------| 
E|---------------------| 



Eb|-------------------------------
Bb|-------------------------------
Gb|-11-11-11-11-11-11-11-11-9-9-9-
Db|-------------------------------
Ab|-9--9--9--9--9--9--9--9--7-7-7-
Eb|-------------------------------

E|---------------------| 
B|---------------------| 
G|9-9-9-9-9------------| 
D|---------------------| 
A|7-7-7-7-7------------| 
E|---------------------| 



Eb|-------------------------------
Bb|-------------------------------
Gb|-8-8-8-8-8-8-8-8-9-9-9-9-9-9-9-
Db|-------------------------------
Ab|-6-6-6-6-6-6-6-6-7-7-7-7-7-7-7-
Eb|-------------------------------

E|---------------------| 
B|---------------------| 
G|9--------------------| 
D|---------------------| 
A|7--------------------| 
E|---------------------| 



Eb|-------------------------------
Bb|-------------------------------
Gb|-6-6-6-6-6-6-6-6-4-4-4-4-4-4-4-
Db|-------------------------------
Ab|-4-4-4-4-4-4-4-4-2-2-2-2-2-2-2-
Eb|-------------------------------

E|---------------------| 
B|---------------------| 
G|4-4~~----------------| 
D|---------------------| 
A|2-2~~----------------| 
E|---------------------| 



         B5/F#         D5/A
I wanna heal, I wanna feel
         G5               E5
What I thought was never real
         B5/F#         D5/A       
I wanna let go of the pain I've 
       A5
held so long
                E5
(Erase all the pain till it's gone)
         B5/F#         D5/A
I wanna heal, I wanna feel
           G5                E5
Like I'm close to something real
         B5/F#               D5/A 
I wanna find something I've wanted
       A5
 all along
 E5
Somewhere I belong


Segunda Parte:

And I've got nothing to say I can't believe I didn't fall right down on my face (I was confused) Looking everywhere only to find That it's not the way I had imagined it all in my mind (So what am I?) What do I have but negativity? 'Cause I can't justify the way Everyone is looking at me (Nothing to lose) Nothing to gain, hollow and alone And the fault is my own And the fault is my own Segundo Refrão: Eb|------------------------------- Bb|------------------------------- Gb|-8-8-8-8-8-8-8-8-9-9-9-9-9-9-9- Db|------------------------------- Ab|-6-6-6-6-6-6-6-6-7-7-7-7-7-7-7- Eb|------------------------------- E|---------------------| B|---------------------| G|9--------------------| D|---------------------| A|7--------------------| E|---------------------| Eb|------------------------------- Bb|------------------------------- Gb|-11-11-11-11-11-11-11-11-9-9-9- Db|------------------------------- Ab|-9--9--9--9--9--9--9--9--7-7-7- Eb|------------------------------- E|---------------------| B|---------------------| G|9-9-9-9-9------------| D|---------------------| A|7-7-7-7-7------------| E|---------------------| Eb|------------------------------- Bb|------------------------------- Gb|-8-8-8-8-8-8-8-8-9-9-9-9-9-9-9- Db|------------------------------- Ab|-6-6-6-6-6-6-6-6-7-7-7-7-7-7-7- Eb|------------------------------- E|---------------------| B|---------------------| G|9--------------------| D|---------------------| A|7--------------------| E|---------------------| Eb|------------------------------- Bb|------------------------------- Gb|-11-11-11-11-11-11-11-11-9-9-9- Db|------------------------------- Ab|-9--9--9--9--9--9--9--9--7-7-7- Eb|------------------------------- E|---------------------| B|---------------------| G|9-9-9-9-9------------| D|---------------------| A|7-7-7-7-7------------| E|---------------------| Eb|------------------------------- Bb|------------------------------- Gb|-8-8-8-8-8-8-8-8-9-9-9-9-9-9-9- Db|------------------------------- Ab|-6-6-6-6-6-6-6-6-7-7-7-7-7-7-7- Eb|------------------------------- E|---------------------| B|---------------------| G|9--------------------| D|---------------------| A|7--------------------| E|---------------------| Eb|------------------------------- Bb|------------------------------- Gb|-11-11-11-11-11-11-11-11-9-9-9- Db|------------------------------- Ab|-9--9--9--9--9--9--9--9--7-7-7- Eb|------------------------------- E|---------------------| B|---------------------| G|9-9-9-9-9------------| D|---------------------| A|7-7-7-7-7------------| E|---------------------| Eb|------------------------------- Bb|------------------------------- Gb|-8-8-8-8-8-8-8-8-9-9-9-9-9-9-9- Db|------------------------------- Ab|-6-6-6-6-6-6-6-6-7-7-7-7-7-7-7- Eb|------------------------------- E|---------------------| B|---------------------| G|9--------------------| D|---------------------| A|7--------------------| E|---------------------| Eb|------------------------------- Bb|------------------------------- Gb|-6-6-6-6-6-6-6-6-4-4-4-4-4-4-4- Db|------------------------------- Ab|-4-4-4-4-4-4-4-4-2-2-2-2-2-2-2- Eb|------------------------------- E|---------------------| B|---------------------| G|4--------------------| D|---------------------| A|2--------------------| E|---------------------| B5/F# D5/A I wanna heal, I wanna feel G5 E5 What I thought was never real B5/F# D5/A I wanna let go of the pain I've A5 held so long E5 (Erase all the pain till it's gone) B5/F# D5/A I wanna heal, I wanna feel G5 E5 Like I'm close to something real B5/F# D5/A I wanna find something I've wanted A5 all along E5 Somewhere I belong Terceira Parte: Eb|------------------------------ Bb|------------------------------ Gb|-11-11-11--11-11-11-11-------- Db|------------------------5--5-- Ab|-9--9--9---9--9--9--9---5--5-- Eb|------------------------3--3-- E|------------| B|------------| G|11-11-11-11-| D|------------| A|9--9--9--9--| E|------------| Eb|------------------------------- Bb|------------------------------- Gb|-------11-11-11-11--------6/7-- Db|-7--7---------------2--2------- Ab|-7--7--9--9--9--9---2--2--4/5-- Eb|-5--5---------------0--0------- E|-----------| B|-----------| G|6----------| D|-----------| A|4----------| E|-----------| Eb|------------------------------ Bb|------------------------------ Gb|-11-11-11--11-11-11-11-------- Db|------------------------5--5-- Ab|-9--9--9---9--9--9--9---5--5-- Eb|------------------------3--3-- E|------------| B|------------| G|11-11-11-11-| D|------------| A|9--9--9--9--| E|------------| Eb|------------------------------- Bb|------------------------------- Gb|-------11-11-11-11--------6/7-- Db|-7--7---------------2--2------- Ab|-7--7--9--9--9--9---2--2--4/5-- Eb|-5--5---------------0--0------- E|-----------| B|-----------| G|6----------| D|-----------| A|4----------| E|-----------| Eb|------------------------------ Bb|------------------------------ Gb|-11-11-11--11-11-11-11-------- Db|------------------------5--5-- Ab|-9--9--9---9--9--9--9---5--5-- Eb|------------------------3--3-- E|------------| B|------------| G|14-14-14-14-| D|------------| A|12-12-12-12-| E|------------| Eb|------------------------------- Bb|------------------------------- Gb|-------11-11-11-11--------6/7-- Db|-7--7---------------2--2------- Ab|-7--7--9--9--9--9---2--2--4/5-- Eb|-5--5---------------0--0------- E|-----------| B|-----------| G|6----------| D|-----------| A|4----------| E|-----------| Eb|------------------------------ Bb|------------------------------ Gb|-11-11-11--11-11-11-11-------- Db|------------------------5--5-- Ab|-9--9--9---9--9--9--9---5--5-- Eb|------------------------3--3-- E|------------| B|------------| G|11-11-11-11-| D|------------| A|9--9--9--9--| E|------------| Eb|------------------------------- Bb|------------------------------- Gb|-11\9--9\7--7--6/7\--4~~------- Db|------------------------------- Ab|-9-\7--7\5--5--4/7\--2~~------- Eb|------------------------------- B5/F# G5 I will never know A5 Myself until I E5 B5/F# Do this on my own G5 And I will never feel A5 Anything else E5 B5/F# Until my wounds are healed G5 I will never be A5 E5 Anything 'till I break away from B5/F# me G5 I will break away A5 E5 I'll find myself today Terceiro Refrão: Eb|------------------------------- Bb|------------------------------- Gb|-8-8-8-8-8-8-8-8-9-9-9-9-9-9-9- Db|------------------------------- Ab|-6-6-6-6-6-6-6-6-7-7-7-7-7-7-7- Eb|------------------------------- E|---------------------| B|---------------------| G|9--------------------| D|---------------------| A|7--------------------| E|---------------------| Eb|------------------------------- Bb|------------------------------- Gb|-11-11-11-11-11-11-11-11-9-9-9- Db|------------------------------- Ab|-9--9--9--9--9--9--9--9--7-7-7- Eb|------------------------------- E|---------------------| B|---------------------| G|9-9-9-9-9------------| D|---------------------| A|7-7-7-7-7------------| E|---------------------| Eb|------------------------------- Bb|------------------------------- Gb|-8-8-8-8-8-8-8-8-9-9-9-9-9-9-9- Db|------------------------------- Ab|-6-6-6-6-6-6-6-6-7-7-7-7-7-7-7- Eb|------------------------------- E|---------------------| B|---------------------| G|9--------------------| D|---------------------| A|7--------------------| E|---------------------| Eb|------------------------------- Bb|------------------------------- Gb|-11-11-11-11-11-11-11-11-9-9-9- Db|------------------------------- Ab|-9--9--9--9--9--9--9--9--7-7-7- Eb|------------------------------- E|---------------------| B|---------------------| G|9-9-9-9-9------------| D|---------------------| A|7-7-7-7-7------------| E|---------------------| Eb|------------------------------- Bb|------------------------------- Gb|-8-8-8-8-8-8-8-8-9-9-9-9-9-9-9- Db|------------------------------- Ab|-6-6-6-6-6-6-6-6-7-7-7-7-7-7-7- Eb|------------------------------- E|---------------------| B|---------------------| G|9--------------------| D|---------------------| A|7--------------------| E|---------------------| Eb|------------------------------- Bb|------------------------------- Gb|-11-11-11-11-11-11-11-11-9-9-9- Db|------------------------------- Ab|-9--9--9--9--9--9--9--9--7-7-7- Eb|------------------------------- E|---------------------| B|---------------------| G|9-9-9-9-9------------| D|---------------------| A|7-7-7-7-7------------| E|---------------------| Eb|------------------------------- Bb|------------------------------- Gb|-8-8-8-8-8-8-8-8-9-9-9-9-9-9-9- Db|------------------------------- Ab|-6-6-6-6-6-6-6-6-7-7-7-7-7-7-7- Eb|------------------------------- E|---------------------| B|---------------------| G|9--------------------| D|---------------------| A|7--------------------| E|---------------------| Eb|------------------------------- Bb|------------------------------- Gb|-11-11-11-11-11-11-11-11-9-9-9- Db|------------------------------- Ab|-9--9--9--9--9--9--9--9--7-7-7- Eb|------------------------------- E|---------------------| B|---------------------| G|9-9-9-9-9------------| D|---------------------| A|7-7-7-7-7------------| E|---------------------| B5/F# D5/A I wanna heal, I wanna feel G5 E5 What I thought was never real B5/F# D5/A I wanna let go of the pain I've A5 held so long E5 (Erase all the pain till it's gone) B5/F# D5/A I wanna heal, I wanna feel G5 E5 Like I'm close to something real B5/F# D5/A I wanna find something I've wanted A5 all along E5 B5/F# Somewhere I belong Final: Eb|------------------------------- Bb|------------------------------- Gb|-8-8-8-8-8-8-8-8-9-9-9-9-9-9-9- Db|------------------------------- Ab|-6-6-6-6-6-6-6-6-7-7-7-7-7-7-7- Eb|------------------------------- E|---------------------| B|---------------------| G|9--------------------| D|---------------------| A|7--------------------| E|---------------------| Eb|------------------------------- Bb|------------------------------- Gb|-11-11-11-11-11-11-11-11-9-9-9- Db|------------------------------- Ab|-9--9--9--9--9--9--9--9--7-7-7- Eb|------------------------------- E|---------------------| B|---------------------| G|9-9-9-9-9------------| D|---------------------| A|7-7-7-7-7------------| E|---------------------| Eb|------------------------------- Bb|------------------------------- Gb|-8-8-8-8-8-8-8-8-9-9-9-9-9-9-9- Db|------------------------------- Ab|-6-6-6-6-6-6-6-6-7-7-7-7-7-7-7- Eb|------------------------------- E|---------------------| B|---------------------| G|9--------------------| D|---------------------| A|7--------------------| E|---------------------| Eb|------------------------------- Bb|------------------------------- Gb|-6-6-6-6-6-6-6-6-4-4-4-4-4-4-4- Db|------------------------------- Ab|-4-4-4-4-4-4-4-4-2-2-2-2-2-2-2- Eb|------------------------------- E|---------------------| B|---------------------| G|4--------------------| D|---------------------| A|2--------------------| E|---------------------| D5/A G5 I wanna heal, I wanna feel E5 B5/F# Like I'm somewhere I belong D5/A A5 I wanna heal, I wanna feel E5 B5/F# Like I'm somewhere I belong Somewhere I belong Somewhere I belong
Composición: Brad Delson / Chester Bennington / Dave Phoenix Farrell / Joe Hahn / Mike Shinoda / Rob BourdonColaboración y revisión: DaniloDener SilveiraPedro FiorentinHeldery más 1
videoclase Somewhere I Belong - Linkin Park (aula de guitarra)

Utilizamos cookies e outras tecnologias semelhantes para melhorar e personalizar sua experiência de uso. Ao navegar nos produtos, você concorda com as condições descritas em nossa Política de Privacidade.