No Quarter

Led Zeppelin

Tono: G
Here are the two chords played before the chorus:
both are strummed out sort of slowly
#1t1##1t2#e--------------------------------------------------------------------
b--4----------------9------------------------------------------------
g--6---------------11------------------------------------------------
d--7---------------12------------------------------------------------
a--7---------------12------------------------------------------------
E--------------------------------------------------------------------#/1t2##/1t1#

And the chorus part has some heavy fuzz on the guitar:
(The last bend is for the end of the chorus)
#2t1##2t2#e--------------------------------------------------------------------
b--------------------------------------------------------------------
g--------------------------------------------------------------------
d-----6-6-6------6-6-6------6------------------------2---------------
a-2/4-4-4-4--2/4-4-4-4--2/4-4-4-----4-4-4-2------2-----4----2^4------
E-------------------------------0/2-2-2-2-0--0-4---4-----------------#/2t2##/2t1#

The solo has two guitars on it, one clean, and one with fuzz.
Just listen to the song to try to match up parts.
Here is the clean guitar solo:
#3t1##3t2#e--------------------------------------------------------------------
b--------------------------------------------------------------------
g--------------------------4-6/8-6-4-6/8-6\4-6----------------8-11p8-
d-9p6---9p6---6p4--------6---------------------------9-8----9--------
a-----9-----7-----7--4-7---------------------------------11----------
E--------------------------------------------------------------------#/3t2##/3t1#

#4t1##4t2#e--------------------------------------------------------------------
b--------------------------------------------------------------------
g--11p8---8-11p8-11p8---8--------------------------------------------
d-------9-------------9---9-8----8-9---8-----------------------------
a-----------------------------11----------11-11-11-------------------
E--------------------------------------------------------------------#/4t2##/4t1#

#5t1##5t2#e--------------------------------------------14p11----14p11----------
b-------------------------------------11-12--------12-------12-16p12-
g-----------9---------9-11-11---11h13--------------------------------
d----8-9-11---11p9-11------------------------------------------------
a-11-----------------------------------------------------------------
E--------------------------------------------------------------------#/5t2##/5t1#

#6t1##6t2#e--------------------------------------------------------------------
b--11-12p11----11--------------------9-------------------------------
g-----------13----13-11-9----9-11-12--------12-11-9-8--9p8----8-9p8--
d--------------------------11------------------------------11--------
a--------------------------------------------------------------------
E--------------------------------------------------------------------#/6t2##/6t1#

#7t1##7t2#e--------------------------------------------------------------------
b--------------------------------------------------------------------
g----9--------------------------------------------4---6---8-----8----
d-11---11-9---9-11------9--------------------------------------------
a-----------11---------------7-6----6-7-6---------2---4---6-----6----
E---------------------------------9-------9--------------------------#/7t2##/7t1#

#8t1##8t2#e--------------------------------------------------------------------
b--------------------------------------------------------------------
g-11--13----13\12--13\12---13\12--12/13------------------------------
d----------------------------------------9---------------------------
a--9--11----11\10--11\10---11\10--10/11------------------------------
E--------------------------------------------------------------------#/8t2##/8t1#

Here's the solo parts for the fuzzed guitar.

#9t1##9t2#e--------------------------------------------------------------------
b--------------------------------------------------------------------
g-------6/8-6p4-6---------------------------------9-11-9-8-----------
d-----6------------------------------9-8-------------------11--------
a-6-7------------------------------------11-11-11--------------------
E--------------------------------------------------------------------#/9t2##/9t1#

#10t1#(This is during the octave part)
#10t2#e-------------------------------------------------11-11h12p11-11-12--
b-9-11--11^12---12p11-12p11-12p11^12---14^16-------------------------
g--------------------------------------------------------------------
d--------------------------------------------------------------------
a--------------------------------------------------------------------
E--------------------------------------------------------------------#/10t2##/10t1#

#11t1##11t2#e-11h12p11---------------------------------------------------16------
b-----------14-12--11h12p11----11-12-14-16^17^16-14-16-16^17---------
g---------------------------13---------------------------------------
d--------------------------------------------------------------------
a--------------------------------------------------------------------
E--------------------------------------------------------------------#/11t2##/11t1#

#12t1##12t2#e--------------------------------------------------------------------
b-16^17--16-14-16-14--12^14^12----11-12-11----11-12-11-12------------
g------------------------------------------13-------------13-11--11--
d--------------------------------------------------------------------
a--------------------------------------------------------------------
E--------------------------------------------------------------------#/12t2##/12t1#

#13t1##13t2#e--------------------------------------------------------------------
b--------------------------------------------------------------------
g--13^15-----11-9----9-8---8h9p8-------------------------------------
d-----------------11-----9--------11---------------------------------
a--------------------------------------------------------------------
E--------------------------------------------------------------------#/13t2##/13t1#





        Whoever posted No Quarter the other day, thanks. I went home
and tried it (listened to the tape at the same time) and found that
it sounded better one half step higher, though. Maybe my guitar is
tuned off by a fret..

#14t1##14t2#e-------------------------------------------------------------- 
B--------------------------------------------------------------
G--------------------------------------------------------------
D-----7-7-7------7-7-7------7------------------------3-0-------
A-3/5-5-5-5--3/5-5-5-5--3/5-5------5-5-5-3-------3-0-----------
E------------------------------1/3-3-3-3-1---3-5---------------#/14t2##/14t1#
Composición: Jimmy Page / John Paul Jones / Robert PlantColaboración y revisión: