A
123
X02220
B
234
X24442
D
123
XX0232
E
123
022100
G
123
320003
Tono: G
DARLENE

submitted by treyrab
*

Tuning
6 5 4 3 2 1
E A D G B E



E|----------------|--------------
B|----------------|--------------
G|----------------|--------------
D|--------------3-|(3)-3-3-------
A|--------------1-|(1)-0-1-010---
E|----------------|------------3-

E|--|----------------|----------------| 
B|--|--------------3-|(3)-------------| 
G|--|--------------2-|(2)-------------| 
D|--|--------------0-|(0)-------------| 
A|3-|(3)-2-3-2320----|----------------| 
E|--|------------31--|----------------| 



E|----------------|| 
B|(3)-------------|| 
G|(2)-------------|| 
D|(0)-------------|| 
A|----------------|| 
E|----------------|| 



E|----------------|------------
B|----------------|------------
G|----------------|--------0---
D|5-----3-----2---|--0-2-3---3-
A|----------------|------------
E|----------------|------------

E|----|----------------|------------
B|----|----------------|------------
G|----|----------------|--------0---
D|2320|5-----3-----2---|--0-2-3---3-
A|----|----------------|------------
E|----|----------------|------------

----| 
----| 
----| 
2320| 
----| 
----| 

                               \3/  
                             \3/


E|----------------|------------
B|----------------|------------
G|----------------|--------0---
D|5-----3-----2---|--0-2-3---3-
A|----------------|------------
E|----------------|------------

E|----|----------------|----------------| 
B|----|----------------|----------------| 
G|----|----------------|----------------| 
D|2320|5---------------|----------------| 
A|----|----------------|----------------| 
E|----|----------------|----------------| 

                               \3/


E|----------------|------------
B|----------------|------------
G|----------------|--------0---
D|5-----3-----2---|--0-2-3---3-
A|----------------|------------
E|----------------|------------

E|----|----------------|------------
B|----|----------------|------------
G|----|----------------|--------0---
D|2320|5-----3-----2---|--0-2-3---3-
A|----|----------------|------------
E|----|----------------|------------

----| 
----| 
----| 
2320| 
----| 
----| 

                               \3/  
                             \3/


E|----------------|------------
B|----------------|------------
G|----------------|--------0---
D|5-----3-----2---|--0-2-3---3-
A|----------------|------------
E|----------------|------------

E|----|----------------|----------------| 
B|----|----------------|----------------| 
G|----|----------------|----------------| 
D|2320|5---------------|----------------| 
A|----|----------------|----------------| 
E|----|----------------|----------------| 

                               \3/


E|----------------|------------
B|----------------|------------
G|----------------|--------0---
D|5-----3-----2---|--0-2-3---3-
A|----------------|------------
E|----------------|------------

E|----|----------------|------------
B|----|----------------|------------
G|----|----------------|--------0---
D|2320|5-----3-----2---|--0-2-3---3-
A|----|----------------|------------
E|----|----------------|------------

----| 
----| 
----| 
2320| 
----| 
----| 

                               \3/  
                             \3/


                                                     w/ Fill 1

E|----------------|------------
B|----------------|------------
G|----------------|--------0---
D|5-----3-----2---|--0-2-3---3-
A|----------------|------------
E|----------------|------------

E|----|----------------|--------------
B|----|----------------|--------------
G|----|----------------|----------3-4-
D|2320|5---------------|----------3-4-
A|----|----------------|----------1-2-
E|----|----------------|--------------

--| 
--| 
5-| 
5-| 
3-| 
--| 

                               \3/


E|----------------|--------------
B|----------------|--------------
G|----3-4-5-------|--3-4-5---3-4-
D|----3-4-5-------|--3-4-5---3-4-
A|----1-2-3-------|--1-2-3---1-2-
E|----------------|--------------

E|--|----------------|--------------
B|--|----------------|--------------
G|5-|----3-4-5-------|--3-4-5---3-4-
D|5-|----3-4-5-------|--3-4-5---3-4-
A|3-|----1-2-3-------|--1-2-3---1-2-
E|--|----------------|--------------

--| 
--| 
5-| 
5-| 
3-| 
--| 



                                                     w/ Fill 2

E|----------------|--------------
B|----------------|--------------
G|----3-4-5-------|--3-4-5---5-6-
D|----3-4-5-------|--3-4-5---5-6-
A|----1-2-3-------|--1-2-3---3-4-
E|----------------|--------------

E|--|----------------|--------------
B|7-|----------------|--------------
G|7-|----------------|--------------
D|7-|----------------|--------------
A|5-|----------------|--------------
E|--|----------------|--------------

--| 
--| 
--| 
3-| 
--| 
--| 



E|----------------|------------
B|----------------|------------
G|----------------|--------0---
D|5-----3-----2---|--0-2-3---3-
A|----------------|------------
E|----------------|------------

E|----|----------------|------------
B|----|----------------|------------
G|----|----------------|--------0---
D|2320|5-----3-----2---|--0-2-3---3-
A|----|----------------|------------
E|----|----------------|------------

----| 
----| 
----| 
2320| 
----| 
----| 

                               \3/  
                             \3/


                                                     w/ Fill 3

E|----------------|------------
B|----------------|------------
G|----------------|--------0---
D|5-----3-----2---|--0-2-3---3-
A|----------------|------------
E|----------------|------------

E|----|----------------|----------------| 
B|----|----------------|----------------| 
G|----|----------------|----------------| 
D|2320|5---------------|----------------| 
A|----|----------------|----------------| 
E|----|----------------|----------------| 

                               \3/


E|----------------|------------
B|----------------|------------
G|----------------|--------0---
D|5-----3-----2---|--0-2-3---3-
A|----------------|------------
E|----------------|------------

E|----|----------------|------------
B|----|----------------|------------
G|----|----------------|--------0---
D|2320|5-----3-----2---|--0-2-3---3-
A|----|----------------|------------
E|----|----------------|------------

----| 
----| 
----| 
2320| 
----| 
----| 

                               \3/  
                             \3/


E|----------------|------------
B|----------------|------------
G|----------------|--------0---
D|5-----3-----2---|--0-2-3---3-
A|----------------|------------
E|----------------|------------

E|----|----------------|--------------
B|----|----------------|--------------
G|----|----------------|----------3-4-
D|2320|5---------------|----------3-4-
A|----|----------------|----------1-2-
E|----|----------------|--------------

--| 
--| 
5-| 
5-| 
3-| 
--| 

                               \3/


E|----------------|--------------
B|----------------|--------------
G|----3-4-5-------|--3-4-5---3-4-
D|----3-4-5-------|--3-4-5---3-4-
A|----1-2-3-------|--1-2-3---1-2-
E|----------------|--------------

E|--|----------------|--------------
B|--|----------------|--------------
G|5-|----3-4-5-------|--3-4-5---3-4-
D|5-|----3-4-5-------|--3-4-5---3-4-
A|3-|----1-2-3-------|--1-2-3---1-2-
E|--|----------------|--------------

--| 
--| 
5-| 
5-| 
3-| 
--| 



                                                     w/ Fill 4

E|----------------|--------------
B|----------------|--------------
G|----3-4-5-------|--3-4-5---5-6-
D|----3-4-5-------|--3-4-5---5-6-
A|----1-2-3-------|--1-2-3---3-4-
E|----------------|--------------

E|--|----------------|--------------
B|7-|----------------|--------------
G|7-|----------------|--------------
D|7-|----------------|--------------
A|5-|----------------|--------------
E|--|----------------|--------------

--| 
--| 
--| 
3-| 
--| 
--| 



  Guitar Solo 1

E|----------------|------------
B|----------------|------------
G|----------------|--------0---
D|5-----3-----2---|--0-2-3---3-
A|----------------|------------
E|----------------|------------

E|----|----------------|------------
B|----|----------------|------------
G|----|----------------|--------0---
D|2320|5-----3-----2---|--0-2-3---3-
A|----|----------------|------------
E|----|----------------|------------

----| 
----| 
----| 
2320| 
----| 
----| 

                               \3/  
                             \3/


E|----------------|------------
B|----------------|------------
G|----------------|--------0---
D|5-----3-----2---|--0-2-3---3-
A|----------------|------------
E|----------------|------------

E|----|----------------|----------------| 
B|----|----------------|----------------| 
G|----|----------------|----------------| 
D|2320|5---------------|----------------| 
A|----|----------------|----------------| 
E|----|----------------|----------------| 

                               \3/


E|----------------|------------
B|----------------|------------
G|----------------|--------0---
D|5-----3-----2---|--0-2-3---3-
A|----------------|------------
E|----------------|------------

E|----|----------------|------------
B|----|----------------|------------
G|----|----------------|--------0---
D|2320|5-----3-----2---|--0-2-3---3-
A|----|----------------|------------
E|----|----------------|------------

----| 
----| 
----| 
2320| 
----| 
----| 

                               \3/  
                             \3/


E|----------------|------------
B|----------------|------------
G|----------------|--------0---
D|5-----3-----2---|--0-2-3---3-
A|----------------|------------
E|----------------|------------

E|----|----------------|--------------
B|----|----------------|--------------
G|----|----------------|----------3-4-
D|2320|5---------------|----------3-4-
A|----|----------------|----------1-2-
E|----|----------------|--------------

--| 
--| 
5-| 
5-| 
3-| 
--| 

                               \3/


E|----------------|--------------
B|----------------|--------------
G|----3-4-5-------|--3-4-5---3-4-
D|----3-4-5-------|--3-4-5---3-4-
A|----1-2-3-------|--1-2-3---1-2-
E|----------------|--------------

E|--|----------------|--------------
B|--|----------------|--------------
G|5-|----3-4-5-------|--3-4-5---3-4-
D|5-|----3-4-5-------|--3-4-5---3-4-
A|3-|----1-2-3-------|--1-2-3---1-2-
E|--|----------------|--------------

--| 
--| 
5-| 
5-| 
3-| 
--| 



E|----------------|--------------
B|----------------|--------------
G|----3-4-5-------|--3-4-5---5-6-
D|----3-4-5-------|--3-4-5---5-6-
A|----1-2-3-------|--1-2-3---3-4-
E|----------------|--------------

E|--|----------------|--------------
B|7-|----------------|--------------
G|7-|----------------|----------3-4-
D|7-|----------------|----------3-4-
A|5-|----------------|----------1-2-
E|--|----------------|--------------

--| 
--| 
5-| 
5-| 
3-| 
--| 



E|----------------|--------------
B|----------------|--------------
G|----3-4-5-------|--3-4-5---3-4-
D|----3-4-5-------|--3-4-5---3-4-
A|----1-2-3-------|--1-2-3---1-2-
E|----------------|--------------

E|--|----------------|--------------
B|--|----------------|--------------
G|5-|----3-4-5-------|--3-4-5---3-4-
D|5-|----3-4-5-------|--3-4-5---3-4-
A|3-|----1-2-3-------|--1-2-3---1-2-
E|--|----------------|--------------

--| 
--| 
5-| 
5-| 
3-| 
--| 


E|----------------|-------------- B|----------------|-------------- G|----3-4-5-------|--3-4-5---5-6- D|----3-4-5-------|--3-4-5---5-6- A|----1-2-3-------|--1-2-3---3-4- E|----------------|-------------- E|--|----------------|-------------- B|7-|----------------|-------------- G|7-|----------------|-------------- D|7-|----------------|-------------- A|5-|----------------|-------------- E|--|----------------|-------------- --| --| --| 3-| 1-| --| E|----------------|-------------- B|----------------|-------------- G|----------------|-------------- D|----2-3---------|-------------- A|----0-1-010---3-|(3)-2-3-2320-- E|------------3---|------------31 E|--|----------------|-------------- B|3-|(3)-------------|(3)----------- G|2-|(2)-------------|(2)----------- D|0-|(0)-------------|(0)----------- A|--|----------------|-------------- E|--|----------------|-------------- --| --| --| 3-| 1-| --| E|----------------|-------------- B|----------------|-------------- G|----------------|-------------- D|----2-3---------|-------------- A|----0-1-010---3-|(3)-2-3-2320-- E|------------3---|------------31 E|--|----------------|----------------|| B|3-|(3)-------------|(3)-------------|| G|2-|(2)-------------|(2)-------------|| D|0-|(0)-------------|(0)-------------|| A|--|----------------|----------------|| E|--|----------------|----------------|| 12/8 time E|------------------------|------ B|----------0-------------|------ G|----------0-------2-----|------ D|5---------2-------3-----|------ A|3-----------------------|------ E|------------------------|------ E|------------------|------------------------| B|------------3---4-|5---------0-------------| G|------------3---4-|5---------0-------2-----| D|2---3-2320--------|----------2-------3-----| A|------------------|------------------------| E|------------------|------------------------| E|------------------------|------- B|------------------3---4-|5------ G|------------------3---4-|5------ D|------2---3-2320--------|------- A|------------------------|------- E|------------------------|------- E|-----------------|------------ B|---0-------------|------------ G|---0-------2-----|------------ D|---2-------3-----|------2---3- A|-----------------|------------ E|-----------------|------------ E|------------| B|------3---4-| G|------3---4-| D|2320--------| A|------------| E|------------| w/ Fill 5 E|------------------------|------- B|5-----------------------|------- G|5-----------------------|------- D|------------------------|------- A|------------------------|------- E|------------------------|------- E|------------------------|------ B|----------0-------------|------ G|----------0-------2-----|------ D|5---------2-------3-----|------ A|3-----------------------|------ E|------------------------|------ E|------------------|------------------------| B|------------3---4-|5---------0-------------| G|------------3---4-|5---------0-------2-----| D|2---3-2320--------|----------2-------3-----| A|------------------|------------------------| E|------------------|------------------------| E|------------------------|------- B|------------------3---4-|5------ G|------------------3---4-|5------ D|------2---3-2320--------|------- A|------------------------|------- E|------------------------|------- E|-----------------|------------ B|---0-------------|------------ G|---0-------2-----|------------ D|---2-------3-----|------2---3- A|-----------------|------------ E|-----------------|------------ E|------------| B|------3---4-| G|------3---4-| D|2320--------| A|------------| E|------------| w/ Fill 6 E|------------------------|------- B|5-----------------------|------- G|5-----------------------|------- D|------------------------|------- A|------------------------|------- E|------------------------|------- E|------------------------|------ B|----------0-------------|------ G|----------0-------2-----|------ D|5---------2-------3-----|------ A|3-----------------------|------ E|------------------------|------ E|------------------|------------------------| B|------------3---4-|5---------0-------------| G|------------3---4-|5---------0-------2-----| D|2---3-2320--------|----------2-------3-----| A|------------------|------------------------| E|------------------|------------------------| E|------------------------|------- B|------------------3---4-|5------ G|------------------3---4-|5------ D|------2---3-2320--------|------- A|------------------------|------- E|------------------------|------- E|-----------------|------------ B|---0-------------|------------ G|---0-------2-----|------------ D|---2-------3-----|------2---3- A|-----------------|------------ E|-----------------|------------ E|------------| B|------3---4-| G|------3---4-| D|2320--------| A|------------| E|------------| E|------------------------|------- B|5-----------------------|------- G|5-----------------------|------- D|------------------------|------- A|------------------------|------- E|------------------------|------- E|----------1-------------|------ B|----------1-------------|------ G|------------------------|------ D|------------------3-----|------ A|3-----------------3-----|------ E|1-----------------------|------ E|------------------|----------1-------------| B|------------------|----------1-------------| G|------------------|------------------------| D|2---3-2320--0-----|------------------3-----| A|------------------|3-----------------3-----| E|------------------|1-----------------------| E|------------------------|------- B|------------------------|------- G|------------------------|------- D|------2---3-2320--0---0-|5------ A|------------------------|3------ E|------------------------|------- E|-----------------|---------------- B|---5-------------|---------------- G|---5-------------|------3---5-3-5- D|---5-------5-----|---------------- A|-----------3-----|---------------- E|-----------------|---------------- E|--------| B|--------| G|3-------| D|--0-----| A|--------| E|--------| E|------------------------|------ B|----------5-------------|------ G|----------5-------------|------ D|5---------5-------5-----|------ A|3-----------------3-----|------ E|------------------------|------ E|------------------|----------1-------------| B|------------------|----------1-------------| G|3---5-3-5-3-------|------------------------| D|------------0-----|3-----------------3-----| A|------------------|3-----------------3-----| E|------------------|1-----------------------| E|------------------------|------- B|------------------------|------- G|------------------------|------- D|-----2---3-2320--0------|------- A|------------------------|3------ E|------------------------|1------ E|---1-------------|------------ B|---1-------------|------------ G|-----------------|------------ D|-----------3-----|------2---3- A|-----------3-----|------------ E|-----------------|------------ E|------------| B|------------| G|----------0-| D|2320--0-----| A|------------| E|------------| E|------------------------|------ B|------------------------|------ G|------2-----2-----4-----|5---5- D|------0-----0-----0-----|0----- A|5-----------------------|------ E|------------------------|------ E|------------------|------------------------| B|------------------|------------------------| G|4-----------------|------------------------| D|0-----4-5-7-0---0-|5-----------------------| A|------------------|------------------------| E|------------------|------------------------| E|----------1-------------|------ B|----------1-------------|------ G|------------------------|------ D|------------------3-----|------ A|3-----------------3-----|------ E|1-----------------------|------ E|------------------|----------1-------------| B|------------------|----------1-------------| G|------------------|------------------------| D|2---3-2320--0-----|------------------3-----| A|------------------|3-----------------3-----| E|------------------|1-----------------------| E|------------------------|------- B|------------------------|------- G|------------------------|------- D|------2---3-2320--0---0-|5------ A|------------------------|3------ E|------------------------|------- E|-----------------|---------------- B|---5-------------|---------------- G|---5-------------|------3---5-3-5- D|---5-------5-----|---------------- A|-----------3-----|---------------- E|-----------------|---------------- E|--------| B|--------| G|3-------| D|--0-----| A|--------| E|--------| E|------------------------|------ B|----------5-------------|------ G|----------5-------------|------ D|5---------5-------5-----|------ A|3-----------------3-----|------ E|------------------------|------ E|------------------|----------1-------------| B|------------------|----------1-------------| G|3---5-3-5-3-------|------------------------| D|------------0-----|3-----------------3-----| A|------------------|3-----------------3-----| E|------------------|1-----------------------| E|------------------------|------- B|------------------------|------- G|------------------------|------- D|-----2---3-2320--0------|------- A|------------------------|3------ E|------------------------|1------ E|---1-------------|------------ B|---1-------------|------------ G|-----------------|------------ D|-----------3-----|------2---3- A|-----------3-----|------------ E|-----------------|------------ E|------------| B|------------| G|----------0-| D|2320--0-----| A|------------| E|------------| E|------------------------|------ B|------------------------|------ G|------------5---2-4---5-|----4- D|------0---0-------------|------ A|5-----------------------|------ E|------------------------|------ E|------------------|------------------------| B|------------------|------------------------| G|5-4-2-5-4-2-5-4-2-|------------------------| D|------------------|------------------------| A|------------------|------------------------| E|------------------|3-----------------------| Guitar Solo 2 E|----------1-------------|------ B|----------1-------------|------ G|------------------------|------ D|------------------3-----|------ A|3-----------------3-----|------ E|1-----------------------|------ E|------------------|----------1-------------| B|------------------|----------1-------------| G|------------------|------------------------| D|2---3-2320--0-----|------------------3-----| A|------------------|3-----------------3-----| E|------------------|1-----------------------| E|------------------------|------- B|------------------------|------- G|------------------------|------- D|------2---3-2320--0---0-|5------ A|------------------------|3------ E|------------------------|------- E|-----------------|---------------- B|---5-------------|---------------- G|---5-------------|------3---5-3-5- D|---5-------5-----|---------------- A|-----------3-----|---------------- E|-----------------|---------------- E|--------| B|--------| G|3-------| D|--0-----| A|--------| E|--------| E|------------------------|------ B|----------5-------------|------ G|----------5-------------|------ D|5---------5-------5-----|------ A|3-----------------3-----|------ E|------------------------|------ E|------------------|----------1-------------| B|------------------|----------1-------------| G|3---5-3-5-3-------|------------------------| D|------------0-----|3-----------------3-----| A|------------------|3-----------------3-----| E|------------------|1-----------------------| E|------------------------|------- B|------------------------|------- G|------------------------|------- D|-----2---3-2320--0------|------- A|------------------------|3------ E|------------------------|1------ E|---1-------------|------------ B|---1-------------|------------ G|-----------------|------------ D|-----------3-----|------2---3- A|-----------3-----|------------ E|-----------------|------------ E|------------| B|------------| G|----------0-| D|2320--0-----| A|------------| E|------------| E|------------------------|------ B|------------------------|------ G|------------------------|------ D|------0-----------0-----|3-0-0- A|5-----------5-----------|------ E|------------------------|------ E|------------------|------------------------| B|------------------|------------------------| G|------------------|------------------------| D|0-----3-0-0-0-----|------------------------| A|------------------|------------------------| E|------------------|3-----------------------| E|----------1-------------|------ B|----------1-------------|------ G|------------------------|------ D|------------------3-----|------ A|3-----------------3-----|------ E|1-----------------------|------ E|------------------|----------1-------------| B|------------------|----------1-------------| G|------------------|------------------------| D|2---3-2320--0-----|------------------3-----| A|------------------|3-----------------3-----| E|------------------|1-----------------------| E|------------------------|------- B|------------------------|------- G|------------------------|------- D|------2---3-2320--0---0-|5------ A|------------------------|3------ E|------------------------|------- E|-----------------|---------------- B|---5-------------|---------------- G|---5-------------|------3---5-3-5- D|---5-------5-----|---------------- A|-----------3-----|---------------- E|-----------------|---------------- E|--------| B|--------| G|3-------| D|--0-----| A|--------| E|--------| E|------------------------|------ B|----------5-------------|------ G|----------5-------------|------ D|5---------5-------5-----|------ A|3-----------------3-----|------ E|------------------------|------ E|------------------|----------1-------------| B|------------------|----------1-------------| G|3---5-3-5-3-------|------------------------| D|------------0-----|3-----------------3-----| A|------------------|3-----------------3-----| E|------------------|1-----------------------| E|------------------------|------- B|------------------------|------- G|------------------------|------- D|-----2---3-2320--0------|------- A|------------------------|3------ E|------------------------|1------ E|---1-------------|------------ B|---1-------------|------------ G|-----------------|------------ D|-----------3-----|------2---3- A|-----------3-----|------------ E|-----------------|------------ E|------------| B|------------| G|----------0-| D|2320--0-----| A|------------| E|------------| E|------------------------|------ B|------------------------|------ G|------------------------|------ D|0---0-4---0-4---0-5---0-|4---0- A|------------------------|------ E|------------------------|------ E|------------------|------------------------| B|------------------|------------------------| G|------------------|------------------------| D|3---0-5---0-4---0-|5-----------------------| A|------------------|------------------------| E|------------------|------------------------| E|----------1-------------|------ B|----------1-------------|------ G|------------------------|------ D|------------------3-----|------ A|3-----------------3-----|------ E|1-----------------------|------ E|------------------|----------1-------------| B|------------------|----------1-------------| G|------------------|------------------------| D|2---3-2320--0-----|------------------3-----| A|------------------|3-----------------3-----| E|------------------|1-----------------------| E|------------------------|------- B|------------------------|------- G|------------------------|------- D|------2---3-2320--0---0-|5------ A|------------------------|3------ E|------------------------|------- E|-----------------|---------------- B|---5-------------|---------------- G|---5-------------|------3---5-3-5- D|---5-------5-----|---------------- A|-----------3-----|---------------- E|-----------------|---------------- E|--------| B|--------| G|3-------| D|--0-----| A|--------| E|--------| E|------------------------|------ B|----------5-------------|------ G|----------5-------------|------ D|5---------5-------5-----|------ A|3-----------------3-----|------ E|------------------------|------ E|------------------|----------1-------------| B|------------------|----------1-------------| G|3---5-3-5-3-------|------------------------| D|------------0-----|3-----------------3-----| A|------------------|3-----------------3-----| E|------------------|1-----------------------| E|------------------------|------- B|------------------------|------- G|------------------------|------- D|-----2---3-2320--0------|------- A|------------------------|3------ E|------------------------|1------ E|---1-------------|------------ B|---1-------------|------------ G|-----------------|------------ D|-----------3-----|------2---3- A|-----------3-----|------------ E|-----------------|------------ E|------------| B|------------| G|----------0-| D|2320--0-----| A|------------| E|------------| E|------------------------|------ B|------------------------|------ G|----------------------0-|------ D|0-----0---0-4---0-0-----|0----- A|------------------------|------ E|------------------------|------ E|------------------|------------------------| B|------------------|------------------------| G|------------------|------------------------| D|3-0-0-5-0-0-3-0-0-|------------------------| A|------------------|------------------------| E|------------------|3-----------------------| Guitar Fill 1 Guitar Fill 2 E|----------------| E| B|------6---------| B| G|--5-7---753-3---| G| D|--------------5-| D| A|----------------| A| E|----------------| E| E|----------------|--1---1---------| B|--------------1-|3---3---3-------| G|----------------|-----------0----| D|----------------|----------------| A|----------------|----------------| E|----------------|----------------| Guitar Fill 3 Guitar Fill 4 E|-------1--------| E| B|--1-3----1-31---| B| G|--------------3-| G| D|----------------| D| A|----------------| A| E|----------------| E| E|----------------|--3-13131-------| B|--------------1-|3---3-----3-1---| G|----------------|--------------3-| D|----------------|----------------| A|----------------|----------------| E|----------------|----------------| \3/\3/ Guitar Fill 5 Guitar Fill 6 E|----3-----3-------------| B|----6-----6-----4-------| G|------------------------| D|------------------------| A|------------------------| E|------------------------| E| E|----11------11----11----| B| B|----13------11----8-----| G| G|------------------------| D| D|------------------------| A| A|------------------------| E| E|------------------------| Guitar Fill 7 E|----3-------------------| B|----6-------------------| G|------------5-3-0-0-----| D|--------------------3-0-| A|------------------------| E|------------------------| Guitar Solo 1 E|----------------|-------------- B|--------------5-|--3---------8- G|30--0---0-0-----|------8-6----- D|--3---3---3-5---|----7------7-- A|----------------|-------------- E|----------------|-------------- E|--|----------------|------------ B|6-|--108---108---8-|----8-6---8- G|--|----------------|------------ D|--|9-----9-----9---|--7-----7-9- A|--|----------------|------------ E|--|----------------|------------ ----| 1010| ----| ----| ----| ----| E|----------------|--3--------- B|8-----368-6---1-|3-----3-1--- G|----------------|----------3- D|----------------|------------ A|----------------|------------ E|----------------|------------ E|----|----------------|----------------| B|----|---------1--1---|4-3-8--68-6-----| G|030-|0---3-0--0--0---|----------------| D|---3|--30----3--3--3-|5---------------| A|----|----------------|----------------| E|----|----------------|----------------| \3/ \3/ \-3-/ E|------1513------|-------------- B|--1415--151513--|12--12------15 G|--------------15|--15--15--19-- D|----------------|-------------- A|----------------|-------------- E|----------------|-------------- E|15|----15----15----|18----18------ B|--|--15----15--1820|--1820--20---- G|--|19----19--------|-------------- D|--|----------------|-------------- A|--|----------------|-------------- E|--|----------------|-------------- 18| --| --| --| --| --| \-3/ E|20--1815--------|--------------- B|--------1815----|----------15--- G|------------1815|151715171515--- D|----------------|------------17- A|----------------|--------------- E|----------------|--------------- E|-|-1113-13-1-33-31|--------------- B|-|-3--3--1-1------|--------------- G|-|----------------|320-0---0------ D|-|----------------|---3--3-------- A|-|----------------|--------------- E|-|----------------|--------------- \--3-/ \3/\3/ \3---------------------| E|------------------------|---- B|------------------------|---- G|------------10--10----10|14-- D|--------1012------12----|---- A|----8-12----------------|---- E|------------------------|---- E|--------------------|---------- B|--------------------|---------- G|1212--10----10----10|13--1013-- D|--------------------|---------- A|--------------------|---------- E|--------------------|---------- --------------| --------------| 10121213131313| --------------| --------------| --------------| E|------------------------|----8- B|13121012--10----1012--10|------ G|------------------------|------ D|------------------------|------ A|------------------------|------ E|------------------------|------ E|5-----5-----------|----8-------------------| B|----8-----8-6-----|----------------------1-| G|----------------8-|9-----------------------| D|------------------|------------------------| A|------------------|------------------------| E|------------------|------------------------| E|--5-5-8---------------8-|5----- B|5-------------8---------|--8-5- G|----------7-9---9-------|------ D|------------------------|------ A|------------------------|------ E|------------------------|------ E|------------------|------------------------| B|8-5---5-----------|------------------------| G|----7---7-5-7-5---|5---------5-----5-----8-| D|----------------7-|------7-----7-----------| A|------------------|------------------------| E|------------------|------------------------| E|------------------------|------ B|----8-7---8-------------|------ G|10----------7---5-----5-|----5- D|------------------7-----|------ A|------------------------|------ E|------------------------|------ E|------------------|------------------------| B|------------------|------------------------| G|----5-2-----2---5-|2-----2---2-------------| D|7---------5-------|----3-------------------| A|------------------|------------------------| E|------------------|------------------------| E|------------------------|------ B|------------------------|------ G|------2---------2-------|2---2- D|----------4-----------0-|------ A|------------------------|------ E|------------------------|------ E|------------------|------------------------| B|------------------|------------------------| G|----2-------2---2-|-0----------------------| D|0-----0-----0-----|------------------------| A|------------0-----|------------------------| E|------------------|------------------------| E|------------------------|---- B|------------------------|---- G|------------------------|10-- D|--------------------1012|--12 A|----------------8-12----|---- E|------------------------|---- E|------10------------|-------------- B|----10--1310--1310--|10------------ G|1014--------------12|--1210--1210-- D|--------------------|------0-----12 A|--------------------|-------------- E|--------------------|-------------- ----------| ----------| 10----10--| ----12----| ----------| ----------| E|-----------13----1415-16|17-17-- B|-----131517-------------|------- G|--14--------------------|------- D|------------------------|------- A|------------------------|------- E|------------------------|------- E|--17-----15------|---------------- B|-----------13----|13--13----1315-- G|---------------14|------14-------- D|-----------------|---------------- A|-----------------|---------------- E|-----------------|---------------- E|--------| B|--13----| G|--------| D|--------| A|--------| E|--------| E|----------------1517--15|---- B|------15--13------------|---- G|----14------------------|---- D|------------------------|---- A|------------------------|---- E|------------------------|---- E|--------------------|----131515---- B|1315----13--------13|17--------17-- G|--------------14----|-------------- D|--------------------|-------------- A|--------------------|-------------- E|--------------------|-------------- ----------| 1513---14-| ----------| ----------| ----------| ----------| E|------------------------|10-- B|15----13----------13----|---- G|------------------14----|---- D|------------------------|---- A|------------------------|---- E|------------------------|---- E|-- B|13 G|-- D|-- A|-- E|-- E|----------10------|----------------10------| B|13----13------13--|13------------------1313| G|14--1212----12--14|12--1012--1012--14----14| D|------------------|------------------------| A|------------------|------------------------| E|------------------|------------------------| E|------------------------|------ B|------------------------|----8- G|14121012--1012----------|12---- D|------------------------|------ A|------------------------|------ E|------------------------|------ E|------------------|------8---10------------| B|9---10------------|----12------12--108-----| G|------12--108-----|------------------------| D|----------------9-|------------------------| A|------------------|------------------------| E|------------------|------------------------| E|------------------------|------- B|----------------------8-|101010- G|------------------------|------- D|------------------------|------- A|------------------------|------- E|------------------------|------- E|-----------------|---------------- B|-----10101010108-|6--------------- G|-----------------|---------------- D|-----------------|---------------- A|-----------------|---------------- E|-----------------|---------------- E|--5-5-------------------|------ B|--------886-----------6-|4----- G|------------------7-----|----5- D|------------------------|------ A|------------------------|------ E|------------------------|------ E|------------------|------------------------| B|------6---6-6-----|--------------------1213| G|3---2-------------|------------------------| D|------------------|------------------------| A|------------------|------------------------| E|------------------|------------------------| E|------------------------|---- B|13----------------------|---- G|------------------5-----|--10 D|--------------5-7-----10|12-- A|----------3-7-----------|---- E|------------------------|---- E|--------------------|----------5-------------| B|101313--------------|------------8---5-------| G|----------------5-7-|9---9---------------9---| D|------------5-7-----|------------------------| A|--------3-6---------|------------------------| E|--------------------|------------------------| E|------------------------|------- B|------------------------|------- G|7---5-------5-------5---|2------ D|--------7-------7-------|----3-- A|------------------------|------- E|------------------------|------- E|-----------------|---------------- B|-----------------|---------------- G|-----------------|---------------- D|---------7-------|----------2-3--- A|-----------------|---------------- E|-----------------|---------------- E|--------| B|--1---1-| G|2-------| D|--------| A|--------| E|--------| E|----0-------------------|------- B|----1-----------1-3---1-|------- G|------------------------|------- D|------------------------|------- A|------------------------|------- E|------------------------|------- E|-----------------|---------------- B|---13------------|---------------- G|-----------------|------------5--- D|-----------------|----------57---- A|-----------------|5---5-9--------- E|-----------------|---------------- E|--------| B|--------| G|5-------| D|--------| A|------5-| E|--------| E|------------------------|------- B|------------------------|----10- G|------7---7-----7-7-----|------- D|--9---------------------|------- A|9-----------------------|------- E|------------------------|------- E|-----------------|6---7-8--------- B|-----8---------10|----------12---- G|-----------------|---------------- D|-----------------|---------------- A|-----------------|---------------- E|-----------------|---------------- E|108-----| B|------9-| G|--------| D|--------| A|--------| E|--------|
Composición: Colaboración y revisión:

Utilizamos cookies para personalizar sua experiência. Ao acessar o site, você concorda com a nossa Política de Privacidade.