Cobaia (part. Maiara e Maraisa)

Lauana Prado

Am
123
X02210
C
123
X32010
C9
34
X35533
D
123
XX0232
Em
12
022000
G
123
320003
Tono: G
[Intro] Em  C9  D
        Em  C9  D

#1t1##1t2#E|----------5/7-5--3p2------2/3-3--2-2-2------------|
B|-1/3-3-3--------------5~--3/5-5--3-3-3\1--1-0-----|
G|----------------------------------------------2---|
D|--------------------------------------------------|
A|--------------------------------------------------|
E|--------------------------------------------------|#/1t2##/1t1#

#2t1##2t2#E|----------5/7-5--3p2------2/3-3--2-2-2------------|
B|-1/3-3-3--------------5~--3/5-5--3-3-3\1--1-0-----|
G|----------------------------------------------2---|
D|--------------------------------------------------|
A|--------------------------------------------------|
E|--------------------------------------------------|#/2t2##/2t1#

#3t1##3t2#E|--------------------------------------------------|
B|-1/3--3/5-5-5--5/7--------------------------------|
G|--------------------------------------------------|
D|--------------------------------------------------|
A|--------------------------------------------------|
E|--------------------------------------------------|#/3t2##/3t1#

[Primeira Parte]

G
 Você tem
                Em
Um emprego pra mim
Olha ai
                 D
Qualquer coisa que
     C           G          D
Que me mantenha perto de você
Posso fazer

G
 Cafuné no cabelo
                       Em
Vigio o seu sono, sei lá
Até provo o seu beijo
                                D
Pra ver se a barba vai me arranhar
    C9           G            D
Eu posso ser fiscal do seu olhar
Nem precisa pagar

[Pré-Refrão]

Am              C
  Pego sua toalha
                         G    D
Pra quando você sair do banho
Am                  C
  Posso ser a cobaia
                             G     D
Pra quando você fizer seus planos

[Refrão]

                       Em
Quando for beijar alguém
 C9                  D
Testa esse beijo em mim
                   Em
Antes de amar meu bem
 C9                 D
Testa esse amor em mim
                      Em
Quando for beijar alguém
 C9                  D
Testa esse beijo em mim
                   Em
Antes de amar meu bem
 C9                 D
Testa esse amor em mim

                            C
Me prenda, me abraça e não saia
  G                       D
Aceito esse emprego de cobaia
                            C
Me prenda, me abraça e não saia
  G                       D
Aceito esse emprego de cobaia

[Solo] Em  C9  D
       Em  C9  D

#4t1##4t2#E|----------5/7-5--3p2------2/3-3--2-2-2------------|
B|-1/3-3-3--------------5~--3/5-5--3-3-3\1--1-0-----|
G|----------------------------------------------2---|
D|--------------------------------------------------|
A|--------------------------------------------------|
E|--------------------------------------------------|#/4t2##/4t1#

#5t1##5t2#E|----------5/7-5--3p2------2/3-3--2-2-2------------|
B|-1/3-3-3--------------5~--3/5-5--3-3-3\1--1-0-----|
G|----------------------------------------------2---|
D|--------------------------------------------------|
A|--------------------------------------------------|
E|--------------------------------------------------|#/5t2##/5t1#

#6t1##6t2#E|--------------------------------------------------|
B|-1/3--3/5-5-5--5/7--------------------------------|
G|--------------------------------------------------|
D|--------------------------------------------------|
A|--------------------------------------------------|
E|--------------------------------------------------|#/6t2##/6t1#

[Pré-Refrão]

Am              C
  Pego sua toalha
                         G    D
Pra quando você sair do banho
Am                  C
  Posso ser a cobaia
                             G     D
Pra quando você fizer seus planos

[Refrão]

                       Em
Quando for beijar alguém
 C                   D
Testa esse beijo em mim
                   Em
Antes de amar meu bem
 C                  D
Testa esse amor em mim
                      Em
Quando for beijar alguém
 C                   D
Testa esse beijo em mim
                   Em
Antes de amar meu bem
 C                  D
Testa esse amor em mim

                            C
Me prenda, me abraça e não saia
  G                       D
Aceito esse emprego de cobaia
                            C
Me prenda, me abraça e não saia
  G                       D
Aceito esse emprego de cobaia

[Final] Em  C9  D  Em

#7t1##7t2#E|----------5/7-5--3p2------2/3-3--2-2-2------------|
B|-1/3-3-3--------------5~--3/5-5--3-3-3\1--1-0-----|
G|----------------------------------------------2---|
D|--------------------------------------------------|
A|--------------------------------------------------|
E|--------------------------------------------------|#/7t2##/7t1#
Composición: Bruno CalimanColaboración y revisión: Thiago AlmeidaAlyssandro Lima
videoclase COBAIA (aula pocket)