Love And Meth

Korn

Tono: G
Tuning: A Standard (7 String) A D G C F a d

~ - Hold Note
/ - Slide-up


#1t1#Riff 1 (Intro/Outro)
#1t2#D|--------------------------------|
A|--------------------------------|
F|--------------------------------|
C|--------------------------------|
G|--------------------------------|
D|--------------------------------|
A|--8-0-8-0-8-0~--8-0-8-0-8-0-1/--| #/1t2##/1t1#

#2t1#Riff 2 (Intro/Outro)
#2t2#D|--------------------------------|
A|--------------------------------|
F|--------------------------------|
C|--------------------------------|
G|----------------------------9~--|
D|----------------------------8~--|
A|--8-0-8-0-8-0~--8-0-8-0-8-0-----|#/2t2##/2t1#

#3t1#Riff 3 (Verse)
#3t2#D|-----------------------------|
A|-----------------------------|
F|-----------------------------|
C|-----------------------------|
G|-----------------------------|
D|--5---5---5---------5---5----|
A|----2---2---2--2--2---2---2--|#/3t2##/3t1#

#4t1#Riff 4 (Verse/Pre-Chorus)
#4t2#D|---------------------------|
A|---------------------------|
F|---------------------------|
C|---------------------------|
G|---------------------------|
D|---------------------------|
A|--8-0-8-0-8-0--0-8-0-8-0---|#/4t2##/4t1#

#5t1#Riff 5 (Verse/Pre-Chorus)
#5t2#D|--------------------------------|
A|--------------------------------|
F|--------------------------------|
C|--------------------------------|
G|--------------------------------|
D|--------------------------------|
A|--8-0-8-0-8-0--0-8-0-8-0--0-1/--|#/5t2##/5t1#

#6t1#Riff 6 (Chorus) Guitar-1
#6t2#D|---------------------|
A|---------------------|
F|---------------------|
C|---------------------|
G|------6~-7~--4~------|
D|--4~--4~-5~--2~--5~--|
A|--2~-------------3~--|
                                                       \#/6t2##/6t1#
#7t1#Riff 7 (Chorus) Guitar-2                                | PLAYED TOGETHER
#7t2#D|---------------------------------------------------| /
A|---------------------------------------------------|
F|---------------------------------------------------|
C|--11-11-11-11-11-11-11-11-11-11-11-11-11-11-11-11--|
G|---------------------------------------------------|
D|---------------------------------------------------|
A|---------------------------------------------------|x2#/7t2##/7t1#

#8t1#Riff 8 (Chorus) Guitar-2
#8t2#D|---------------------------------------------------|
A|---------------------------------------------------|
F|---------------------------------------------------|
C|--16-16-16-16-16-16-16-16-16-16-16-16-16-16-16-16--|
G|---------------------------------------------------|
D|---------------------------------------------------|
A|---------------------------------------------------|#/8t2##/8t1#

#9t1#Riff 9 (Chorus) Guitar-2
#9t2#D|---------------------------------------------------|
A|---------------------------------------------------|
F|---------------------------------------------------|
C|--18-18-18-18-18-18-18-18-18-18-18-18-18-18-18-18--|
G|---------------------------------------------------|
D|---------------------------------------------------|
A|---------------------------------------------------|#/9t2##/9t1#

#10t1#Riff 9 (Chorus) Guitar-2
#10t2#D|---------------------------------------------------|
A|---------------------------------------------------|
F|---------------------------------------------------|
C|--18-18-18-18-18-18-18-18-16-16-16-16-16-16-16-16--|
G|---------------------------------------------------|
D|---------------------------------------------------|
A|---------------------------------------------------|#/10t2##/10t1#

#11t1#Riff 10 (Bridge)
#11t2#D|---------------------------------------------------|
A|---------------------------------------------------|
F|---------------------------------------------------|
C|--18-18-18-18-18-18-18-18-18-18-18-18-18-18-18-18--|
G|---------------------------------------------------|
D|---------------------------------------------------|
A|---------------------------------------------------|#/11t2##/11t1#

#12t1#Riff 11 (Bridge)
#12t2#D|---------------------------------------------------|
A|---------------------------------------------------|
F|---------------------------------------------------|
C|--19-19-19-19-19-19-16-16-16-16-16-16-16-16-16-16--|
G|---------------------------------------------------|
D|---------------------------------------------------|
A|---------------------------------------------------|#/12t2##/12t1#

#13t1#Riff 12 (Bridge)
#13t2#D|-------------------------------|
A|-------------------------------|
F|-------------------------------|
C|-------------------------------|
G|-------------------------------|
D|--5---5---5---5----------------|
A|----2---2---2---2--2-2--3-0-2--|#/13t2##/13t1#

#14t1#Riff 13 (Bridge)
#14t2#D|-------------------------------|
A|-------------------------------|
F|-------------------------------|
C|-------------------------------|
G|-------------------------------|
D|--5---5---5---5----------------|
A|----2---2---2---2--2-2--3-0-5--|#/14t2##/14t1#

#15t1#Riff 14 (Pre-Chorus)
#15t2#D|---------------------------|
A|---------------------------|
F|---------------------------|
C|--11-11-11-11-11-11-11-11--|
G|---------------------------|
D|---------------------------|
A|---------------------------|#/15t2##/15t1#

#16t1##16t2#-------------------------------------------------------#/16t2##/16t1#
Composición: Colaboración y revisión: Lucas