Na Rua, Na Chuva, Na Fazenda

Kid Abelha

A
123
X02220
A5(9)
12
X02200
B
234
X24442
B4
234
X24452
C#m7
34
X46454
D
123
XX0232
D7M(9)
1234
X5465X
E
123
022100
Em
12
022000
Em7
123
022030
F#
234
244322
G7M
1234
3X443X
Tono: G
Intro 2x: Em7 B B4

#1t1#    Em7
#1t2#E|------------2--2h4-----------------2-2h4-
B|------2---5--------5--2-------2--5-------
G|------2---2-------------4-----2--2-------
D|------2---2-------------------2--2-------
A|---4------4----4------------4----4---4---
E|-2--------------------2---2--------------
            x                       x#/1t2##/1t1#
#2t1#             B
#2t2#E|-2--4--7-------4--4--4--4--4--4--4--4----
B|-5--5----------6--6--6--6--6--6--6--6----
G|---------------6--6--6--6--6--6--6--6----
D|------------6-----6--6--6--6--6--6--6----
A|----------4-------4--4--4--4--4--4--4----
E|-----------------------------------------
                    ↑  ↑  ↓  ↓  ↑  ↓  ↑#/2t2##/2t1#
#3t1#    B4
#3t2#E|------4---4---------4---4----------------
B|--------7-------------7------------------
G|----6-------------6----------------------
D|-----------------------------------------
A|-4-------------4-------------------------
E|-----------------------------------------#/3t2##/3t1#

Em               A
  Não estou disposto
                         B
A esquecer seu rosto de vez
E acho que é tão normal

Em                A
  Dizem que sou louco
                       B
Por eu ter um gosto assim
Gostar de quem não gosta de mim

Em7           A5(9)       Em7
  Jogue suas mãos para o céu
              A5(9)  D7M(9)
E agradeça se acaso tiver
                 G7M       D7M(9)
Alguém que você gostaria que
           G7M          C#m7
Estivesse sempre com você
             F#         C#m7
Na rua, na chuva, na fazenda
         F#           B  D   E B
Ou numa casinha de sapê

Em
  Não estou disposto
                         B
A esquecer seu rosto de vez
E acho que é tão normal

Em                A
  Dizem que sou louco
                       B
Por eu ter um gosto assim
Gostar de quem não gosta de mim

Em7           A5(9)       Em7
  Jogue suas mãos para o céu
              A5(9)  D7M(9)
E agradeça se acaso tiver
                 G7M       D7M(9)
Alguém que você gostaria que
           G7M          C#m7
Estivesse sempre com você
             F#         C#m7
Na rua, na chuva, na fazenda
         F#           B
Ou numa casinha de sapê

Em7           A5(9)       Em7
  Jogue suas mãos para o céu
              A5(9)  D7M(9)
E agradeça se acaso tiver
                 G7M       D7M(9)
Alguém que você gostaria que
           G7M          C#m7
Estivesse sempre com você
             F#         C#m7
Na rua, na chuva, na fazenda
         F#           B  D   E B
Ou numa casinha de sapê
Composición: HyldonColaboración y revisión: Nicholas DiasGuilherme OliveiraFelipe Rodrigues
videoclase Na Rua, Na Chuva, Na Fazenda (aula de violão)