Wuthering Heights Solo

Kate Bush

Tono: G

e---------------------------------
B--14---16b18--14---16b18---14----
G---------------------------------
D---------------------------------
A---------------------------------
E---------------------------------

e|--------------------------------
B|16b18-----------------------11--
G|----------13--10---10--13-------
D|--------------------------------
A|--------------------------------
E|--------------------------------

e|-------| 
B|14b16--| 
G|-------| 
D|-------| 
A|-------| 
E|-------| 



e--------------11--13-11-9--------
B----------------------------11---
G---------------------------------
D---------------------------------
A---------------------------------
E---------------------------------

e|-------------------------------| 
B|----------------------11-14b16-| 
G|---13----10---10--13-----------| 
D|-------------------------------| 
A|-------------------------------| 
E|-------------------------------| 


here it is provided by the one and only luke henderson put on the earth to rock ur socks off, thankyou very much Lucky Luke
Composición: Kate BushColaboración y revisión:

Utilizamos cookies e outras tecnologias semelhantes para melhorar e personalizar sua experiência de uso. Ao navegar nos produtos, você concorda com as condições descritas em nossa Política de Privacidade.