Am
123
X02210
C
123
X32010
E
123
022100
F/C
234
X33211
F9
234
135211
G
123
320003
G4/B
12
X2001X
G6
1234
3X243X
Tono: G
[Intro]  Am  G4/B  C  F9
         Am  G4/B  C  F9

#1t1#         Am      G4/B      C         F9
#1t2#E|-3-----3----3-----3----3------------------|
B|---0-1--------0-1----------0h1------0-1---|
G|-------------------------0--------2-----2-|
D|----------------------------------3-------|
A|-0----------2----------3------------------|
E|------------------------------------------|#/1t2##/1t1#

#2t1#         Am      G4/B      C         F9
#2t2#E|-3-----3----3-----3----3------------------|
B|---0-1--------0-1----------0h1------------|
G|-------------------------0--------2-------|
D|----------------------------------3-------|
A|-0----------2----------3------------------|
E|------------------------------------------|#/2t2##/2t1#

[Primeiro e Segundo Verso]

#3t1#         Am      G6          C         F9
#3t2#E|-----------------------0---0------1---1---|
B|-1---1------0---0--------1---1------1---1-|
G|---2---2------0---0-----------------------|
D|------------------------------------------|
A|-0---0-----------------3---3------3---3---|
E|------------3---3-------------------------|#/3t2##/3t1#

[Primeiro e Segundo Verso]

#4t1#         Am      G6          F9    C
#4t2#E|-----------------------1------0-----------|
B|-1---1------0---0--------1----1-----------|
G|---2---2------0---0-----------------------|
D|------------------------------------------|
A|-0---0-----------------3------3-----------|
E|------------3---3-------------------------|#/4t2##/4t1#

               Am   G6
Your with the sad eyes 
C                 F/C
Don't be discouraged 
   Am          G6
Oh I realize 
      C               F/C
It's hard to take courage 
      Am              G6
In a world full of people 
C                  F/C
You can lose sight of it all 
         Am          G6
And the darkness, inside you 
               F/C       C
Can make you feel so small 

( Am  G4/B  C  F9 )

            Am   G6
Show me a smile then 
C            F/C             Am
Don't be unhappy, can't remember 
 G6       C               F/C
When I last saw you laughing 
         Am               G6
If this world makes you crazy 
             C             F/C
And you've taken all you can bear 
 Am               G6
Just you call me up 
              F/C           C
'Cause I will always be there 

[Refrão]

#5t1#      F/C       C          G6
#5t2#E|-1---1------0---0-------------------------|
B|---1---1------1---1----0---0---0---0------|
G|-------------------------0---0---0---0----|
D|------------------------------------------|
A|-3---3------3---3-------------------------|
E|-----------------------3---3---3---3------|#/5t2##/5t1#

#6t1#         F/C      C       F/C   G
#6t2#E|-1---1------0---0------1----3-------------|
B|---1---1------1---1----1----3-------------|
G|------------------------------------------|
D|------------------------------------------|
A|-3---3------3---3------3------------------|
E|----------------------------3-------------|#/6t2##/6t1#

#7t1#         F/C      C        E      Am
#7t2#E|-1---1------0---0------0-1----0-0---------|
B|---1---1------1---1----0------1-1---------|
G|-----------------------1------2-----------|
D|-----------------------2------2-----------|
A|-3---3------3---3------2------0-----------|
E|-----------------------0------------------|#/7t2##/7t1#

#8t1#         F/C      C       F/C        C
#8t2#E|-1---1------0---0------1---1------0---0---|
B|---1---1------1---1------1---1------1---1-|
G|------------------------------------------|
D|------------------------------------------|
A|-3---3------3---3------3---3------3---3---|
E|------------------------------------------|#/8t2##/8t1#

#9t1#       G
#9t2#E|-3---3---3---3---3------------------------|
B|---3---3---3---3-3------------------------|
G|-----------------0------------------------|
D|-----------------0------------------------|
A|-----------------2------------------------|
E|-3---3---3---3---3------------------------|#/9t2##/9t1#

#10t1#         Am      G4/B      C         F9
#10t2#E|-3-----3----3-----3----3------------------|
B|---0-1--------0-1----------0h1------------|
G|-------------------------0-------2--------|
D|---------------------------------3--------|
A|-0----------2----------3------------------|
E|------------------------------------------|#/10t2##/10t1#

              F/C   C
And I see your true colors 
G6
Shining through 
           F/C  C
I see your true colors 
     F/C         G
And that's why I love you

     F/C     C        E        Am
So don't be afraid to let them show 
     F/C   C
Your true colors 
F/C  C         G
True colors are beautiful
           F/C  C
I see your true colors
G6
Shining through (true colors)
          F/C   C
I see your true colors
    F/C          G
And that's why I love you
    F/C      C        E        Am
So don't be afraid to let them show
     F/C  C
Your true colors (true colors)
F/C  C         G
True colors are beautiful
       (Am  G4/B  C  F9)
Like a rainbow
                  (Am  G4/B  C  F9)
Ooh ooh ooh like a rainbow


             Am
Can't remember 
 G6       C               F/C
When I last saw you laughing 
         Am               G6
If this world makes you crazy 
             C             F/C
And you've taken all you can bear 
 Am               G6
Just you call me up 
              F/C           C
'Cause I will always be there 


              F/C   C
And I see your true colors 
G6
Shining through 
           F/C  C
I see your true colors 
     F/C         G
And that's why I love you

     F/C     C        E        Am
So don't be afraid to let them show 
     F/C   C
Your true colors 
F/C  C         G
True colors are beautiful
           F/C  C
I see your true colors
G6
Shining through (true colors)
          F/C   C
I see your true colors
    F/C          G
And that's why I love you
    F/C      C        E        Am
So don't be afraid to let them show
     F/C  C
Your true colors (true colors)
F/C  C         G
True colors are beautiful
       (Am  G4/B  C  F9)
Like a rainbow
                  (Am  G4/B  C  F9)
Ooh ooh ooh like a rainbow
Composición: Billy Steinberg / Tom KellyColaboración y revisión: Petra RosalSaulo SobralGabriel Rabelojuh ribeiroy más 3