Desert Plains

Judas Priest

Tono: F
Date: Mon, 23 Mar 1998 17:45:52 
-0800
!From: Judy Letostak

* (Judy Letostak)
Metal Edge BBS (619)423-4970
http://*~letostak/*

lyrics are at the end of the file



Intro

----------------------------------
----------------------------------
------------5--3---------------5--
------------5--3--3------------5--
----1--3----------3------1--3-----
-3--------------------3-----------

-|-----------------------  
-|4----------------------  
-|3--3-----------5--3----  
-|---3-----------5--3--3-  
-|---------1--3--------3-  
-|------3----------------  




----------------------------------
----------------------------------
----------------------------------
----------------------------------
----1--3-hold---------------------
-3--------------------------------


Verse


---------------------------------
---------------------------------
----------5--3----------------5--
----------5--3--3-------------5--
----1--3--------3-------1--3-----
-3-------------------3-----------

-|------------------------  
-|4-----------------------  
-|3--3--------------------  
-|---3--------------------  
-|------------------------  
-|------------------------  



Chorus


----------------------------------
-----------------------4----------
-----------3-----5-----3----------
-----------3-----5----------------
----1--------------------------1--
-3-----4~-------------------3-----

-|-----------------------  
-|-----------------------  
-|------------5----------  
-|------------5----------  
-|-------3--------5-5----  
-|4------1--------3-3----  

                                  
hold


Bridge 2x


----------------------------------
----------------------------------
-----------7--------5-------------
---------7-------5-----------5----
----1/5-------3-----------5-----5-
-3---------------------3----------

-|-----------------------  
-|-----------------------  
-|----7--------7--------5  
-|-7--------7--------5---  
-|-------5--------3------  
-|-----------------------  



-------------| -------------| -------------|End bridge -------5-----| ----5--------| -3-----------| Lead ---------------------------------- -----------5b(7)----8b(10)-etc---- --5--2--2------------------------- --5------------------------------- ---------------------------------- ---------------------------------- Verse Chorus Verse Bridge fade to end Metal Edge BBS (619)423-4970 (San Diego, CA USA) Over 15,000 Guitar Tabs, pictures, construction docs, lessons, interviews, sound files, lyrics, programs. Over 4 Gigz of MP3s =========================================================== h = hammeron ps = pick scrape p = pulloff % = repeat phrase ~ = vibrato * b = bend + natural harmonic /\ = Slide * = Artificial Harmonic x = ghost note tr = trill =========================================================== Lyrics: Full moon is rising The sky is black I need your call I'm coming back The road is straight cast Wind's in my eyes The engine roars between my thighs >From desert plains I bring you love >From desert plains I bring you love Wild mountain thunder Echoes my quest My body aches but I'll not rest Quartz light to guide me Till sunrise leads My passion screams, my heart it bleeds >From desert plains I bring you love >From desert plains I bring you love Then in the distance I see you stand On the horizon you raise your hand In burning rubber I end my quest You fall into my arms at last >From desert plains I bring you love >From desert plains I bring you love
Composición: Colaboración y revisión:

Utilizamos cookies para personalizar sua experiência. Ao acessar o site, você concorda com a nossa Política de Privacidade.