Faith In The Heartland

Journey

A
123
X02220
B
234
X24442
Bb
234
X13331
C
123
X32010
D
123
XX0232
E
123
022100
F
234
133211
F#m
34
244222
G
123
320003
Tono: G

Intro:

E|-------------------------------
B|-------------------------------
G|------9b(11)r(9)b(11)-9b(11)---
D|-9-----------------------------
A|-------------------------------
E|-------------------------------

E|-----------| 
B|---------9-| 
G|9---9-11---| 
D|-----------| 
A|-----------| 
E|-----------| 



E|--------------12---10p9---------
B|-10---9-----------------12---10-
G|----------9---------------------
D|--------------------------------
A|--------------------------------
E|--------------------------------



E|---------12b(14)r(12)b(14)-
B|-12-----x------------------
G|-------x-------------------
D|---------------------------
A|---------------------------
E|---------------------------

E|12b(14)---12---12/14/16-| 
B|------------------------| 
G|------------------------| 
D|------------------------| 
A|------------------------| 
E|------------------------| 



E|-16b(17)---16---12--------
B|---------------------14---
G|--------------------------
D|--------------------------
A|--------------------------
E|--------------------------

E|-----------------------------------| 
B|(14)b(15)r(14)---(14)b(15)r(14)----| 
G|-----------------------------------| 
D|-----------------------------------| 
A|-----------------------------------| 
E|-----------------------------------| 


Verso:
B                    E
He goes to work in a brand new dawn
         D             A
With the early morning sunrise
B                           E
He's got his dream and he's holding 
on
             D            A
It's getting harder every day
B                   E
He loves a girl who speaks her mind
             D                A
Don't always look at life the same 
way
B                       E
Sharing truth that will heal in time

Refrão:
     A                        
They want to believe something 
 D
real... still they're searching
        F#m                     
They're keeping the faith in the 
 D           E
heartland tonight
E|------------------------------- B|------------------------------- G|------9b(11)r(9)b(11)-9b(11)--- D|-9----------------------------- A|------------------------------- E|------------------------------- E|-----------| B|---------9-| G|9---9-11---| D|-----------| A|-----------| E|-----------| E|--------------12---10p9--------- B|-10---9-----------------12---10- G|----------9--------------------- D|-------------------------------- A|-------------------------------- E|-------------------------------- E|---------12b(14)r(12)b(14)- B|-12-----x------------------ G|-------x------------------- D|--------------------------- A|--------------------------- E|--------------------------- E|12b(14)---12---12/14/16-| B|------------------------| G|------------------------| D|------------------------| A|------------------------| E|------------------------| E|-16b(17)---16---12-------- B|---------------------14--- G|-------------------------- D|-------------------------- A|-------------------------- E|-------------------------- E|-----------------------------------| B|(14)b(15)r(14)---(14)b(15)r(14)----| G|-----------------------------------| D|-----------------------------------| A|-----------------------------------| E|-----------------------------------| Verso: B E Time moves on as the fading town D A As they struggle with the changes B The stores have closed, friends E have moved away D A Now it's hope that sees them through B E The kids have grown but they'll see them all D A At the Sunday congregation B E Sharing dreams truth will heal in time Refrão: A They want to believe something D real... still they're searching F#m They're keeping the faith in the D E heartland tonight A It's words that divide them... it's D love that defines them F#m They're keeping the faith in the D E heartland tonight Ponte: C G In our darkest hour, oh, we look to the sky Bb With a silent prayer... believe F that God's on our side G In a land where freedom rings and D where eagles fly ( E G D A (3x) E G A ) A D Ooh, I just want to F#m D E believe it A D Give me something to believe in F#m We all need something to believe D E in, ooh, tonight E G D Got faith... got dreams... A believe E G D We're keeping the faith A tonight ( E G D A ) (2x)
Composición: Augeri / Cain / SchonColaboración y revisión: Mansinho Jr.