A
123
X02220
Bm
234
X24432
G
123
320003
Tono: D
[Solo]


E|2-3-2-------------------0|2-3-2
B|------3-----3-2-2-3----3-|-----
G|-------------------------|-----
D|-------------------------|-----
A|-------------------------|-----
E|-------------------------|-----

E|-------5-3-2----------| 
B|3----3------3---------| 
G|----------------------| 
D|----------------------| 
A|----------------------| 
E|----------------------| 


[Intro]


E|2-3-2-------------------0|2-3-2
B|------3-----3-2-2-3----3-|-----
G|-------------------------|-----
D|-------------------------|-----
A|-------------------------|-----
E|-------------------------|-----

E|-------5-3-2----------| 
B|3----3------3---------| 
G|----------------------| 
D|----------------------| 
A|----------------------| 
E|----------------------| 


  Bm          G
Where should we run to?
            A            Bm
We got the world in our hands and 
we're ready to play
 Bm          G
They say we're wasted
     A                       Bm
But how can we waste it if we're 
loving every day?
Bm  G   A                Bm
Okay, I got the keys to the universe
Bm  G   A                Bm
So stay with me 'cause I got the 
keys, baby

           Bm                  G
Don't wanna wake up one day wishing 
that we done more
          Bm                    
I wanna live fast and never look 
                            A
back, that's what we here for
            G              
Don't wanna wake up one day 
            Bm
wondering where'd it all go
 Bm                        A
'Cause we'll be home before we know
   A
I wanna hear you sing it

Bm                G
Hey, mama, don't stress your mind
      A           Bm
We coming home tonight
Bm                G
Hey, mama, we gonna be alright
 A       Bm
Dry those eyes
Bm G We'll be back in the morning when A Bm the sun stars to rise Bm G So mama, don't stress your mind A Bm So mama, don't stress your mind Bm G Mama, mama, mama, hey A Bm We coming home tonight Bm G Mama, mama, mama, hey A Bm We coming home tonight Bm G Where should we run to? A Bm We got a ticket that takes us wherever we like Bm G We got our problems A Bm But just for the minute, let's push all our troubles aside Bm G A Bm Alright 'cause we got the keys to the universe Bm G A Bm Inside our minds, yeah, we got the keys, baby Bm G Don't wanna wake up one day wishing that we done more Bm I wanna live fast and never look A back, that's what we here for G Don't wanna wake up one day Bm wondering where'd it all go Bm A 'Cause we'll be home before we know A I wanna hear you sing it Bm G Hey, mama, don't stress your mind A Bm We coming home tonight Bm G Hey, mama, we gonna be alright A Bm Dry those eyes Bm G We'll be back in the morning when A Bm the sun stars to rise Bm G So mama, don't stress your mind A Bm So mama, don't stress your mind Bm G Hey, mama, don't stress your mind A Bm We coming home tonight Bm G Hey, mama, we gonna be alright A Bm Dry those eyes Bm G We'll be back in the morning when A Bm the sun stars to rise Bm G So mama, don't stress your mind A Bm So mama, don't stress your mind Bm G Mama, mama, mama, hey A Bm We coming home tonight Bm G Mama, mama, mama, hey A Bm We coming home tonight
Composición: Colaboración y revisión: bruno carvalhoramos

Utilizamos cookies para personalizar sua experiência. Ao acessar o site, você concorda com a nossa Política de Privacidade.