Freedom At 21

Jack White

Tono: A

Verse Part 1

E|--------------------------------
B|--------------------------------
G|--------------------------------
D|--------------------------------
A|-2--2-5-2--2-0~-----------------
E|-----------------0~-------------



Verse Part 2

E|--------------------------------
B|--------------------------------
G|--------------------------------
D|------------------0~------0~----
A|-2--2-5-2--2----2-------0-------
E|--------------3-------2---------



Verse Part 3

E|--------------------------------
B|--------------------------------
G|--------------------------------
D|-----0~------0~-----------------
A|---2-------0--------------------
E|-3-------2----------------------

E||      
B||      
G||      
D|| (2x) 
A||      
E||      



Interlude

E|-0~-----------------------x-x-x-
B|-0~-----------------------x-x-x-
G|-1~-----------------------x-x-x-
D|-2~-----------------------x-x-x-
A|-2~-----------------------x-x-x-
E|-0~-----------------------x-x-x-



End

E|-0~-----------------------------
B|-0~-----------------------------
G|-1~-----------------------------
D|-2~-----------------------------
A|-2~-----------------------------
E|-0~-----------------------------


Verse Part 1 (3x)
Verse Part 2 (1x) Verse Part 1 (3x) Verse Part 2 (1x) Verse Part 1 (3x) Verse Part 2 (1x) Verse Part 3 (1x) Interlude (2x) Verse Part 1 (3x) Verse Part 2 (1x) Verse Part 1 (3x) Verse Part 2 (1x) Verse Part 1 (3x) Verse Part 2 (1x) Verse Part 3 (1x) Interlude (4x) Verse Part 1 (3x) Verse Part 2 (1x) Verse Part 1 (3x) Verse Part 2 (1x) Verse Part 3 (1x) End (1x)
Composición: Jack WhiteColaboración y revisión: Ramon S.F

Utilizamos cookies para personalizar sua experiência. Ao acessar o site, você concorda com a nossa Política de Privacidade.