Upside Down

Jack Johnson

A
123
X02220
B
234
X24442
E
123
022100
F#m
34
244222
G#m
34
466444
Tono: G
[Intro] E  F#m  E  F#m

#1t1##1t2#E|------------------------------------------|
B|------------------------------------------|
G|-----4~------4-4h6------------------------|
D|-4/6-----4/6-------4~--4h6-4h6-4----------|
A|------------------------------------------|
E|------------------------------------------|#/1t2##/1t1#

#2t1##2t2#E|------------------------------------------|
B|------------------------------------------|
G|-----4~------4-4h6------------------------|
D|-4/6-----4/6-------4~--4h6-4h6-4----------|
A|------------------------------------------|
E|------------------------------------------|#/2t2##/2t1#

[Primeira Parte]

  E
Who's to say what's impossible  
       F#m
Well they forgot this world keeps spinning  
         E
And with each new day 
                       F#m
I can feel a change in everything    
                              E
And as the surface breaks reflections fade 
                         F#m
But in some ways they remain the same 
                            E
And as my mind begins to spread it's wings  
                        F#m
There's no stopping curiosity   

[Refrão]

                               E       F#m
I want to turn the whole thing upside down 
A                 B                   E        F#m
  I'll find the things they say just can't be found
A                  B               E    F#m  
  I'll share this love I find with everyone
A                 B               E F#m  
  We'll sing and dance to mother nature's songs
 A                    B              
  I don't want this feeling to go away   

( E  F#m  E  F#m )

#3t1##3t2#E|------------------------------------------|
B|------------------------------------------|
G|-----4~------4-4h6------------------------|
D|-4/6-----4/6-------4~--4h6-4h6-4----------|
A|------------------------------------------|
E|------------------------------------------|#/3t2##/3t1#

#4t1##4t2#E|------------------------------------------|
B|------------------------------------------|
G|-----4~------4-4h6------------------------|
D|-4/6-----4/6-------4~----------2h4-2------|
A|-----------------------2h4-5h7------------|
E|------------------------------------------|#/4t2##/4t1#

[Segunda Parte]

  E
Who's to say I can't do everything  
     F#m                                 E
Well I can try, and as I roll along I begin to find  
                            F#m
Things aren't always just what they seem    

[Refrão]

                               E       F#m
I want to turn the whole thing upside down 
A                 B                   E        F#m
  I'll find the things they say just can't be found
A                  B               E    F#m  
  I'll share this love I find with everyone
A                 B               E F#m  
  We'll sing and dance to mother nature's songs

[Terceira Parte]

A                    B
  This world keeps spinning  
             G#m        F#m
And there's no time to waste
        G#m         A
Well it all keeps spinning spinning
 B                  E       F#m  
Round and round and upside down 
A                        B            E        F#m  
  Who's to say what's impossible and can't be found
A                    B              E   F#m
  I don't want this feeling to go away   

#5t1##5t2#E|------------------------------------------|
B|------------------------------------------|
G|-----4~------4-4h6------------------------|
D|-4/6-----4/6-------4~---------------------|
A|------------------------------------------|
E|------------------------------------------|#/5t2##/5t1#

                  E  F#m
Please don't go away 

#6t1##6t2#E|------------------------------------------|
B|------------------------------------------|
G|-4/6--6/9--9------------------------------|
D|------------------------------------------|
A|------------------------------------------|
E|------------------------------------------|#/6t2##/6t1#
                     A        E
Is this how it's supposed to be?
Composición: Colaboración y revisión: Thiago AlmeidaBruno FrosiJunior WagnerLuiz Miranday más 20
videoclase Upside Down (aula de violão simplificada)