I Got You

Jack Johnson

B
234
X24442
C#m
234
X46654
E
123
022100
F#
234
244322
G#m
34
466444
Tono: B
[Intro]


E|---8--x--5--0--3--|---8--x--5--
B|------x-----------|------x-----
G|------x-----------|------x-----
D|------x-----------|------x-----
A|------x-----------|------x-----
E|---5--x--5--0--0--|---5--x--5--

E|0--3--1--0--|---8--x--5--0--3--|---3--0-----| 
B|------------|------x-----------|---------2--| 
G|------------|------x-----------|------------| 
D|------------|------x-----------|------------| 
A|------------|------x-----------|------------| 
E|0--0--0--0--|---5--x--5--0--0--|------------| 


[Riff]


E|--------------------------------
B|--2/4---4-----------------------
G|--------------------------------
D|--2/4------4/2------------------
A|--------------------------------
E|--------------------------------


 E                                 
Back when all my little goals 
   B
seemed so important
E                                 
Every pot of gold filling full of 
    B
distortion
 E                                 
Heaven was a place, still in space 
 B              F#  (Riff 1)
not in motion, but soon

   E                    B
I got you, i got everything
      E                B 
I've got you, i don't need 
                 E
nothing,more than you

B F# (Riff 1) I got everything, i got you E We went walking through the hills B trying to pretend that we both know E B Maybe if we save up, we could build a little home E But then the hail storm came and B yelled, "you need to let it go F# (Riff 1) You've got no control", no E B I got you, i got everything E B I've got you, i don't need E nothing more than, you B F# (Riff 1) I got everything, i got you G#m B This weight is too much alone G#m B Some days i can't hold it at all G#m B If you take it all for me C#m E When tomorrow's too much, i'll B carry it all, i got you C#m Yeah when tomorrow's too much, i'll E B carry it all, i got you E B I got you, i got everything E B I've got you, i don't need E nothing more than, you B F# (Riff 1) I got everything, i got you
Composición: Jack JohnsonColaboración y revisión: Marcos PauloDanilo ZillerFabio DiasIgor Andersony más 4

Utilizamos cookies para personalizar sua experiência. Ao acessar o site, você concorda com a nossa Política de Privacidade.