Fragments

Jack Johnson

A
123
X02220
C9
34
X35533
D
123
XX0232
G
123
320003
G/B
123
X20033
Tono: G
[Intro]

#1t1#                      D                                          G
#1t2#E|---------------------2-------2-------2-----------------------------------------------|
B|--3--2--0h2p0--------3-------3-------3-------3--2--0h2p0--------0-------0-------0----|
G|--------------2------2-----2-2-----2-2-------------------0----4-4-----4-4-----4-4----|
D|-----------------------0-------0-------0--------------------------5-------5-------5--|
A|-------------------------------------------------------------------------------------|
D|-----------------0-------0-------0--------------------------5-------5-------5--------|#/1t2##/1t1#

#2t1#                      D                                          G
#2t2#E|---------------------2-------2-------2---------------------------------------|
B|--3--2--0h2p0--------3-------3-------3-------3--2--0h2p0--------0-------0----|
G|--------------2----2-2-----2-2-----2-2-------------------0----4-4-----4-4----|
D|-----------------------0-------0-------0--------------------------5-------5--|
A|-----------------------------------------------------------------------------|
D|-----------------0-------0-------0--------------------------5-------5--------|#/2t2##/2t1#

#3t1#         A                    G                     A
#3t2#E|--------0------------------------------------------|
B|-----------------------------0---------------------|
G|--------6-----6------------4-4-----4-4--------/6---|
D|------7---7---7-7--------------5-----5--------/7---|
A|-----------------------------------------------x---|
D|---/7-------7-----7------5-------5------------/7---|#/3t2##/3t1#

                 D                   G
Fragments on the sea, birds of prey above
                    D                    G
All that lies beneath, no longer what is was
   A        G              A
It changed, why can't we relate?

                 D                               G
Shadows from the deep, the thoughts we're afraid of
                D                        G
Secrets that we keep, the surface of our love
    A     G              A
And hate, why can't we relate
G                   A            G                A
With ourselves with what we open up when it's too late?

#4t1#                      D                G/B     C9
#4t2#E|---------------------2-------2---------------------|
B|--3--2---------------3-------3--------3-------3----|
G|--------2-/4---------2-----2-2--------0-------0----|
D|-----------------------0-------0----0---0---1---1--| (x4)
A|----------------------------------2-------3--------|
E|-----------------0-------0-------------------------|#/4t2##/4t1#

#5t1##5t2#E|----------------------------------------------------------------------------------------------------|
B|--10b12-10-7-----------------7---7----10h12-10-----10b12-10-----------------------------------------|
G|-------------9-7-------------7h9-7----11----11--------------11-9b11-11-9--------------7---------11--|
D|-----------------9-7-----7/9-------10------------------------------------12-9-----7/9---10--/12-----|
A|----------------------------------------------------------------------------------------------------|
E|----------------------------------------------------------------------------------------------------|#/5t2##/5t1#

#6t1##6t2#E|--------------------------------------------------------------------10------------------------------|
B|--10b12-10-7-----------------7---7----10h12-10-----10p7-10--10/12-----------12-10\7-----------------|
G|-------------9-7-------------7h9-7----11----11---------------------------------------11-9-7-9-9b11--|
D|-----------------9-7-----7/9-------10---------------------------------------------------------------|
A|----------------------------------------------------------------------------------------------------|
E|----------------------------------------------------------------------------------------------------|#/6t2##/6t1#

               D                  G
What we used to be, what we will become
                D                    G
Worlds we cannot see, breaking up by one
   A    G              A
By one, slowly we fell under a spell
G      A    G              A
One by one, slowly we wake up

               D                             G
Fragments of a scene, from a distant stage undone
              D                  G
Little time machine, messages of love
    A     G               A
And hate, why can't we collate
G                   A            G                A
With ourselves with what we open up when it's too late?

#7t1#                      D                G/B     C9
#7t2#E|---------------------2-------2---------------------|
B|--3--2---------------3-------3--------3-------3----|
G|--------2-/4---------2-----2-2--------0-------0----|
D|-----------------------0-------0----0---0---1---1--| (x6)
A|----------------------------------2-------3--------|
E|-----------------0-------0-------------------------|#/7t2##/7t1#

#8t1##8t2#E|-----------------------------------------------------------------------------------------------------|
B|--10b12-10-7-----------------7---7----10h12-10h12-----10b12-10-7-----------------7---7-----10---10---|
G|-------------9-7-------------7h9-7----11----11-------------------9-7-------------7h9-7------9h11-9---|
D|-----------------9-7-----7/9-------10--------------------------------9-7-----7/9-------10------------|
A|-----------------------------------------------------------------------------------------------------|
E|-----------------------------------------------------------------------------------------------------|#/8t2##/8t1#

#9t1##9t2#E|-----------------------------------------------------------------------------------------------------|
B|--10b12-10-------------------------------------------10b12-10--------------------------7---7---------|
G|-----------11-9b11-11-9--------------7---------11-------------11-9b11-11-9-------------7h9-7----7----|
D|------------------------12-9-----7/9---10--/12-----------------------------12-9----7/9-------10---10-|
A|-----------------------------------------------------------------------------------------------------|
E|-----------------------------------------------------------------------------------------------------|#/9t2##/9t1#

#10t1##10t2#E|-------7-7-------7------7---------------------7-7----------7-7------7--------------------------------|
B|-------7---------7------7---------------------7------------7--------7----10b12-10-7------------------|
G|--9b11-----9b11----9b11-------10b12-10-7-9b11---------9b11-----9b11-----------------9b11-11r9\7------|
D|------------------------------------------------------------------------------------------------9/12-|
A|-----------------------------------------------------------------------------------------------------|
E|-----------------------------------------------------------------------------------------------------|#/10t2##/10t1#
Composición: Colaboración y revisión: Christian Alex