March Of Time

Helloween

B
234
X24442
E
123
022100
G
123
320003
Tono: F#
     W                   W          
         W
E||-------------------|-------------------|-------------------|
B||-------------------|-------------------|-------------------|
G||-------------------|-------------------|-------------------|
D||-------------------|--4----------------|--L----------------|
A||-------------------|--4----------------|--L----------------|
E||-------------------|--2----------------|--L----------------|


  W                   W                   W                   W                 

-------------------|--------------
--3----------------|--L-----------
--2----------------|--L-----------
--0----------------|--L-----------
-------------------|--------------
-------------------|--------------

-|-----|-------------------|--------
-|-----|-------------------|--------
-|-----|-------------------|--------
-|-----|--4----------------|--L-----
-|-----|--4----------------|--L-----
-|-----|--2----------------|--L-----



  W                   W                   W                   W                 

-------------------|--------------
-------------------|--------------
-------------------|--------------
--2----------------|--L-----------
--2----------------|--L-----------
--0----------------|--L-----------

-|-----|-------------------|--------
-|-----|-------------------|--------
-|-----|-------------------|--------
-|-----|--4----------------|--L-----
-|-----|--4----------------|--L-----
-|-----|--2----------------|--L-----



  W                   W                   W                   W                 

-------------------|--------------
--3----------------|--L-----------
--2----------------|--L-----------
--0----------------|--L-----------
-------------------|--------------
-------------------|--------------

-|-----|-------------------|--------
-|-----|-------------------|--------
-|-----|--2----------------|--2-----
-|-----|--2----------------|--2-----
-|-----|--0----------------|--0-----
-|-----|-------------------|--------



  W                   W                   W                   W                 

-------------------|--------------
-------------------|--------------
-------------------|--------------
--2----------------|--L-----------
--2----------------|--L-----------
--0----------------|--L-----------

-|-----|-------------------|--------
-|-----|-------------------|--------
-|-----|-------------------|--------
-|-----|--4----------------|--L-----
-|-----|--4----------------|--L-----
-|-----|--2----------------|--L-----



  S S S S S S S S S S S S S S S S    S S S S S S S S S S S S S S S S  

----------------------------------
----------------------------------
----------------------------------
--2-2-2-2-2-2-2-2-2-2-2-2-2-2-2-2-
----------------------------------
----------------------------------

-||--------------------------------
-||--------------------------------
-||--------------------------------
-||--2-2-2-2-2-2-2-2-2-2-2-2-2-2-2-
-||--------------------------------
-||--------------------------------

-|--| 
-|--| 
-|--| 
-|2-| 
-|--| 
-|--| 



  S S S S S S S S S S S S S S S S    S S S S S S S S S S Q    E   

----------------------------------
----------------------------------
----------------------------------
----------------------------------
--3-3-3-3-3-3-3-3-3-3-3-3-3-3-3-3-
----------------------------------

-||------------------------------| 
-||------------------------------| 
-||----------------------5----7--| 
-||----------------------5----7--| 
-||--3-3-3-3-3-3-3-3-3-3-3----5--| 
-||------------------------------| 



  S S S S S S S S S S S S S S S S    S S S S S S S S S S S S S S S S  

----------------------------------
----------------------------------
----------------------------------
--2-2-2-2-2-2-2-2-2-2-2-2-2-2-2-2-
----------------------------------
----------------------------------

-||--------------------------------
-||--------------------------------
-||--------------------------------
-||--2-2-2-2-2-2-2-2-2-2-2-2-2-2-2-
-||--------------------------------
-||--------------------------------

-|--| 
-|--| 
-|--| 
-|2-| 
-|--| 
-|--| 



  S S S S S S S S S S S S S S S S    S S S S S S S S S S S S S S S S  

----------------------------------
----------------------------------
----------------------------------
----------------------------------
--3-3-3-3-3-3-3-3-3-3-3-3-3-3-3-3-
----------------------------------

-||--------------------------------
-||--------------------------------
-||--------------------------------
-||--------------------------------
-||--5-5-5-5-5-5-5-5-5-5-5-5-5-5-5-
-||--------------------------------

-|--| 
-|--| 
-|--| 
-|--| 
-|5-| 
-|--| 



  E  S S S S E  S S E  S S S S    E  S S S S S S S S S S S S S S  

-------------------------------|--
-------------------------------|--
-------------------------------|--
--9----------9------9--------0-|--
--7----------7------7--0-1-2---|--
-----0-0-0-0----0-0------------|--

-|-------------------------------| 
-|-------------------------------| 
-|-------------------------------| 
-|9----------------------7-5-----| 
-|7--------------7-5-------------| 
-|---0-0-0-0-0-0-----0-0-----0-0-| 



  E  S S S S E  S S E  S S S S    E  S S S S S S Q    Q     

-------------------------------|--
-------------------------------|--
-------------------------------|--
--9----------9------9--------0-|--
--7----------7------7--0-1-2---|--
-----0-0-0-0----0-0------------|--

-|-------------------------| 
-|-------------------------| 
-|---------------5----7----| 
-|9--------------5----7----| 
-|7--------------3----5----| 
-|---0-0-0-0-0-0-----------| 



  E  S S S S E  S S E  S S S S    E  S S S S S S S S S S S S S S  

-------------------------------|--
-------------------------------|--
-------------------------------|--
--9----------9------9--------0-|--
--7----------7------7--0-1-2---|--
-----0-0-0-0----0-0------------|--

-|-------------------------------| 
-|-------------------------------| 
-|-------------------------------| 
-|9----------------------7-5-----| 
-|7--------------7-5-------------| 
-|---0-0-0-0-0-0-----0-0-----0-0-| 



  E  S S S S E  S S E  S S S S    E  S S S S S S S S S S S S S S  

-------------------------------|--
-------------------------------|--
-------------------------------|--
--9----------9------9--------0-|--
--7----------7------7--0-1-2---|--
-----0-0-0-0----0-0------------|--

-|-------------------------------| 
-|-------------------------------| 
-|-------------------------------| 
-|9----------------------7-5-----| 
-|7--------------7-5-------------| 
-|---0-0-0-0-0-0-----0-0-----0-0-| 



  E  S S S S E  S S S S E  S S    E  S S S S E  S S S S E  S S  

-------------------------------|--
-------------------------------|--
-------------------------------|--
--4----------4----------4------|--
--2--3-3-3-3-2--3-3-3-3-2--3-3-|--
-------------------------------|--

-|-----------------------------| 
-|-----------------------------| 
-|-----------------------------| 
-|4----------4----------4------| 
-|2--3-3-3-3-2--3-3-3-3-2--3-3-| 
-|-----------------------------| 



  E  S S S S E  S S E  S S S S    E  S S S S S S S E  S S E  S  

-------------------------------|--
-------------------------------|--
-------------------------------|--
--9----------9------9--------0-|--
--7----------7------7--0-1-2---|--
-----0-0-0-0----0-0------------|--

-|-----------------------------| 
-|-----------------------------| 
-|---------------5-5--L-7-7--L-| 
-|9--------------5-5--L-7-7--L-| 
-|7--------------3-3--L-5-5--L-| 
-|---0-0-0-0-0-0---------------| 



  E  S S S S E  S S E  S S S S    E  S S S S S S S S S S S S S S  

-------------------------------|--
-------------------------------|--
-------------------------------|--
--9----------9------9--------0-|--
--7----------7------7--0-1-2---|--
-----0-0-0-0----0-0------------|--

-|-------------------------------| 
-|-------------------------------| 
-|-------------------------------| 
-|9----------------------7-5-----| 
-|7--------------7-5-------------| 
-|---0-0-0-0-0-0-----0-0-----0-0-| 



  E  S S S S E  S S E  S S S S    E  S S S S S S S S S S S S S S  

-------------------------------|--
-------------------------------|--
-------------------------------|--
--9----------9------9--------0-|--
--7----------7------7--0-1-2---|--
-----0-0-0-0----0-0------------|--

-|-------------------------------| 
-|-------------------------------| 
-|-------------------------------| 
-|9----------------------7-5-----| 
-|7--------------7-5-------------| 
-|---0-0-0-0-0-0-----0-0-----0-0-| 



  E  S S S S E  S S S S E  S S    E  S S S S E  S S S S E  S S  

-------------------------------|--
-------------------------------|--
-------------------------------|--
--4----------4----------4------|--
--2--3-3-3-3-2--3-3-3-3-2--3-3-|--
-------------------------------|--

-|-----------------------------| 
-|-----------------------------| 
-|-----------------------------| 
-|4----------4----------4------| 
-|2--3-3-3-3-2--3-3-3-3-2--3-3-| 
-|-----------------------------| 



  E  S S S S E  S S E  S S S S    E  S S S S S S S S S S S S S S  

-------------------------------|--
-------------------------------|--
-------------------------------|--
--9----------9------9--------0-|--
--7----------7------7--0-1-2---|--
-----0-0-0-0----0-0------------|--

-|-------------------------------| 
-|-------------------------------| 
-|-------------------------------| 
-|9----------------------7-5-----| 
-|7--------------7-5-------------| 
-|---0-0-0-0-0-0-----0-0-----0-0-| 



  Q    E  S S Q    E  S S    E  E 
--------------------------|-------
----------6-6-6----L--6-6-|--6----
--------------------------|-----6-
--3----L------------------|-------
--------------------------|-------
--------------------------|-------
   E  E  E  E  E  E     E  E  Q.    
-|-------------------|--------------
-|-------------------|--------------
-|-6-----------------|--------------
-|----6--6-----------|--------------
-|----------7--7--7--|--2--4--4-----
-|-------------------|--------2-----
   E  E  E   
-|----------| 
-|----------| 
-|----------| 
-|----------| 
-|----------| 
-|-1--2--4--| 



  E  E  E  E  E  E  E  E     Q    E  S S Q    E  S S  

--------------------------|-------
--------------------------|-------
--------------------------|-------
--------------------------|--3----
--------------------------|-------
--2--1--2--4--2--4--2--1--|-------

-|-------------------| 
-|---6-6-6----L--6-6-| 
-|-------------------| 
-|L------------------| 
-|-------------------| 
-|-------------------| 



  E  E  E  E  E  E  E  E     E   
--------------------------|-------
--6-----------------------|-------
-----6--6-----------------|-------
-----------6--6-----------|--7--7-
-----------------7--7--7--|--5--5-
--------------------------|-------
  E E  E  E  E  E  E   
-|-------------------| 
-|-------------------| 
-|-------------------| 
-|-7--7--7--7--7--7--| 
-|-5--5--5--5--5--5--| 
-|-------------------| 



  E  E  E  E  E  E  E  E     E  E  Q    Q    Q       W                 

--------------------------|-------
--------------------------|-------
--------------------------|-------
--9--9--9--9--9--9--9--9--|--9----
--7--7--7--7--7--7--7--7--|--7----
--------------------------|-------

-|----------------|-----------------
-|----------------|-----------------
-|----------------|-----------------
-|----------------|--4--------------
-|-0--------------|--4--------------
-|------4----0----|--2--------------



  W                   W                   W                   W                 

-------------------|--------------
-------------------|--3-----------
-------------------|--2-----------
--L----------------|--0-----------
--L----------------|--------------
--L----------------|--------------

-|-----|-------------------|--------
-|-----|--L----------------|--------
-|-----|--L----------------|--2-----
-|-----|--L----------------|--2-----
-|-----|-------------------|--0-----
-|-----|-------------------|--------



  W                   W                   W                   W                 

-------------------|--------------
-------------------|--------------
--L----------------|--------------
--L----------------|--2-----------
--L----------------|--2-----------
-------------------|--0-----------

-|-----|-------------------|--------
-|-----|-------------------|--------
-|-----|-------------------|--------
-|-----|--L----------------|--4-----
-|-----|--L----------------|--4-----
-|-----|--L----------------|--2-----



  W                   W                   W                   W                 

-------------------|--------------
-------------------|--3-----------
-------------------|--2-----------
--L----------------|--0-----------
--L----------------|--------------
--L----------------|--------------

-|-----|-------------------|--------
-|-----|--L----------------|--------
-|-----|--L----------------|--2-----
-|-----|--L----------------|--2-----
-|-----|-------------------|--0-----
-|-----|-------------------|--------



  W                   W                   W                   W                 

-------------------|--------------
-------------------|--------------
--L----------------|--------------
--L----------------|--2-----------
--L----------------|--2-----------
-------------------|--0-----------

-|-----|-------------------|--------
-|-----|-------------------|--------
-|-----|-------------------|--------
-|-----|--L----------------|--4-----
-|-----|--L----------------|--4-----
-|-----|--L----------------|--2-----



  H.           Q       E  S S S S 
--------------------|-------------
--------------------|-------------
---------------6----|-------------
--L------------6----|--9----------
--L------------4----|--7----------
--L-----------------|-----0-0-0-0-
  E  S S E  S S S S  
-|------------------| 
-|------------------| 
-|------------------| 
-|9------9--------0-| 
-|7------7--0-1-2---| 
-|---0-0------------| 



  E  S S S S S S S S S S S S S S    E  S S S S E  S S E  S S S S  

---------------------------------|
---------------------------------|
---------------------------------|
--9----------------------7-5-----|
--7--------------7-5-------------|
-----0-0-0-0-0-0-----0-0-----0-0-|

-|-------------------------------| 
-|-------------------------------| 
-|-------------------------------| 
-|--9----------9------9--------0-| 
-|--7----------7------7--0-1-2---| 
-|-----0-0-0-0----0-0------------| 



  E  S S S S S S S S S S S S S S    E  S S S S E  S S S S E  S S  

---------------------------------|
---------------------------------|
---------------------------------|
--9----------------------7-5-----|
--7--------------7-5-------------|
-----0-0-0-0-0-0-----0-0-----0-0-|

-|-------------------------------| 
-|-------------------------------| 
-|-------------------------------| 
-|--4----------4----------4------| 
-|--2--3-3-3-3-2--3-3-3-3-2--3-3-| 
-|-------------------------------| 



  E  S S S S E  S S S S E  S S    E  S S S S E  S S E  S S S S  

-------------------------------|--
-------------------------------|--
-------------------------------|--
--4----------4----------4------|--
--2--3-3-3-3-2--3-3-3-3-2--3-3-|--
-------------------------------|--

-|-----------------------------| 
-|-----------------------------| 
-|-----------------------------| 
-|9----------9------9--------0-| 
-|7----------7------7--0-1-2---| 
-|---0-0-0-0----0-0------------| 



  E  S S S S S S Q    Q       E  S S S S E  S S E  S S S S  

---------------------------|-----
---------------------------|-----
-----------------5----7----|-----
--9--------------5----7----|--9--
--7--------------3----5----|--7--
-----0-0-0-0-0-0-----------|-----

-|--------------------------| 
-|--------------------------| 
-|--------------------------| 
-|--------9------9--------0-| 
-|--------7------7--0-1-2---| 
-|0-0-0-0----0-0------------| 



  E  S S S S S S S S S S S S S S    E  S S S S E  S S E  S S S S  

---------------------------------|
---------------------------------|
---------------------------------|
--9----------------------7-5-----|
--7--------------7-5-------------|
-----0-0-0-0-0-0-----0-0-----0-0-|

-|-------------------------------| 
-|-------------------------------| 
-|-------------------------------| 
-|--9----------9------9--------0-| 
-|--7----------7------7--0-1-2---| 
-|-----0-0-0-0----0-0------------| 


E S S S S S S S S S S S S S S E S S S S E S S S S E S S ---------------------------------| ---------------------------------| ---------------------------------| --9----------------------7-5-----| --7--------------7-5-------------| -----0-0-0-0-0-0-----0-0-----0-0-| -|-------------------------------| -|-------------------------------| -|-------------------------------| -|--4----------4----------4------| -|--2--3-3-3-3-2--3-3-3-3-2--3-3-| -|-------------------------------| E S S S S E S S S S E S S E S S S S E S S E S S S S -------------------------------|-- -------------------------------|-- -------------------------------|-- --4----------4----------4------|-- --2--3-3-3-3-2--3-3-3-3-2--3-3-|-- -------------------------------|-- -|-----------------------------| -|-----------------------------| -|-----------------------------| -|9----------9------9--------0-| -|7----------7------7--0-1-2---| -|---0-0-0-0----0-0------------| E S S S S S S S S S S S S S S Q E S S Q E S S ---------------------------------| ---------------------------------| ---------------------------------| --9----------------------7-5-----| --7--------------7-5-------------| -----0-0-0-0-0-0-----0-0-----0-0-| -|--------------------------| -|----------6-6-6----L--6-6-| -|--------------------------| -|--3----L------------------| -|--------------------------| -|--------------------------| E E E E E E E E E E --------------------------|------- --6-----------------------|------- -----6--6-----------------|------- -----------6--6-----------|------- -----------------7--7--7--|--2--4- --------------------------|------- Q. E E E E E E E E -|-----------------|---------------- -|-----------------|---------------- -|-----------------|---------------- -|-----------------|---------------- -|-4---------------|---------------- -|-2------1--2--4--|--2--1--2--4--2- E E E -|----------| -|----------| -|----------| -|----------| -|----------| -|-4--2--1--| Q E S S Q E S S E E E E E E E E --------------------------|------- ----------6-6-6----L--6-6-|--6---- --------------------------|-----6- --3----L------------------|------- --------------------------|------- --------------------------|------- -|-------------------| -|-------------------| -|-6-----------------| -|----6--6-----------| -|----------7--7--7--| -|-------------------| E E E E E E E E E E E E E E E E E E Q Q Q --------------------------|------- --------------------------|------- --------------------------|------- --7--7--7--7--7--7--7--7--|--9--9- --5--5--5--5--5--5--5--5--|--7--7- --------------------------|------- -|-------------------|------------- -|-------------------|------------- -|-------------------|------------- -|-9--9--9--9--9--9--|--9---------- -|-7--7--7--7--7--7--|--7-----0---- -|-------------------|------------- -|----------| -|----------| -|----------| -|----------| -|----------| -|4----0----| W W W W -------------------|-------------- -------------------|-------------- -------------------|-------------- --4----------------|--L----------- --4----------------|--L----------- --2----------------|--L----------- -|-----|-------------------|-------- -|-----|--3----------------|--L----- -|-----|--2----------------|--L----- -|-----|--0----------------|--L----- -|-----|-------------------|-------- -|-----|-------------------|-------- W W W W -------------------|-------------- -------------------|-------------- --2----------------|--L----------- --2----------------|--L----------- --0----------------|--L----------- -------------------|-------------- -|-----|-------------------|-------- -|-----|-------------------|-------- -|-----|-------------------|-------- -|-----|--2----------------|--L----- -|-----|--2----------------|--L----- -|-----|--0----------------|--L----- W W W W -------------------|-------------- -------------------|-------------- -------------------|-------------- --4----------------|--L----------- --4----------------|--L----------- --2----------------|--L----------- -|-----|-------------------|-------- -|-----|--3----------------|--L----- -|-----|--2----------------|--L----- -|-----|--0----------------|--L----- -|-----|-------------------|-------- -|-----|-------------------|-------- W W W W -------------------|-------------- -------------------|-------------- --2----------------|--L----------- --2----------------|--L----------- --0----------------|--L----------- -------------------|-------------- -|-----|-------------------|-------- -|-----|-------------------|-------- -|-----|-------------------|-------- -|-----|--2----------------|--L----- -|-----|--2----------------|--L----- -|-----|--0----------------|--L----- W W W -------------------|-------------- -------------------|-------------- -------------------|--6----------- --4----------------|--6----------- --4----------------|--4----------- --2----------------|-------------- H. Q H. --------------------|------------- --------------------|------------- ---------------6----|------------- ---------------6----|------------- ---------------4----|------------- --------------------|--5---------- E S S H. Q -|---------|---------------------| -|---------|---------------------| -|---------|---------------------| -|-----7-7-|--7~------------L----| -|---------|---------------------| -|--L------|---------------------| H. E S S H. ----------------------|----------- ------------------6-6-|--6~------- ----------------------|----------- --3------------L------|----------- ----------------------|----------- ----------------------|----------- Q H. E S S -|----------|----------------------| -|-----L----|----------------------| -|----------|----------------------| -|----------|------------------7-7-| -|----------|----------------------| -|----------|--5------------L------| H. Q H. ---------------------|------------ ---------------------|------------ ---------------------|------------ --7~------------L----|--3--------- ---------------------|------------ ---------------------|------------ E S S H. Q -|----------|---------------------| -|------6-6-|--6~------------L----| -|----------|---------------------| -|---L------|---------------------| -|----------|---------------------| -|----------|---------------------| E S E S E S S S S S S S S E S E S E S S S S S S S S ---------------------------------| ---------------------------------| ---------------------------------| --5----7----9----10-10---9---7---| -----7----7----------------------| ---------------------------------| -|---------------------------------| -|---------------------------------| -|---------------------------------| -|--5----7----9----10-10---9---7---| -|-----7----7----------------------| -|---------------------------------| E S E S E S S S S S S S S S S S S S S S S S S S S S S S S -------------------------------|-- -------------------------------|-- -------------------------------|-- --4----5----7----9-9---7---4---|-- -----5----5--------------------|-- -------------------------------|-- -|--------------------------------| -|--------------------------------| -|--------------------------------| -|--------------------------------| -|--------------------------------| -|0-0-0-0-0-0-0-0-0-0-0-0-0-0-0-0-| E S E S E S S S S S S S S E S E S E S S S S S S S S ---------------------------------| ---------------------------------| ---------------------------------| --5----7----9----10-10---9---7---| -----7----7----------------------| ---------------------------------| -|---------------------------------| -|---------------------------------| -|---------------------------------| -|--5----7----9----10-10---9---7---| -|-----7----7----------------------| -|---------------------------------| E S E S E S S S S S S S S S S S S S S S S S S S S S S S S -------------------------------|-- -------------------------------|-- -------------------------------|-- --4----5----7----9-9---7---4---|-- -----5----5--------------------|-- -------------------------------|-- -|--------------------------------| -|--------------------------------| -|--------------------------------| -|--------------------------------| -|--------------------------------| -|0-0-0-0-0-0-0-0-0-0-0-0-0-0-0-0-| W W W W -------------------|-------------- -------------------|-------------- -------------------|--6----------- --4----------------|--6----------- --4----------------|--4----------- --2----------------|-------------- -|-----|-------------------|-------- -|-----|-------------------|-------- -|-----|-------------------|--6----- -|-----|--4----------------|--6----- -|-----|--4----------------|--4----- -|-----|--2----------------|-------- W W W W -------------------|-------------- -------------------|-------------- -------------------|--9----------- --4----------------|--9----------- --4----------------|--7----------- --2----------------|-------------- -|-----|-------------------|-------- -|-----|-------------------|-------- -|-----|--7----------------|--6----- -|-----|--7----------------|--6----- -|-----|--5----------------|--4----- -|-----|-------------------|-------- E E E E H E E E E H E E E E H -----------------------|---------- -----------------------|---------- -----------------------|---------- --------------4--------|---------- --------------4--------|--4--4--4- --2--2--2--2-----------|---------- -|-------------|-------------------- -|-------------|-------------------- -|----6--------|-------------------- -|----6--------|--------------4----- -|-4-----------|--------------4----- -|-------------|--2--2--2--2-------- E E E E H E E E E H E E E E H -----------------------|---------- -----------------------|---------- --------------6--------|---------- --------------6--------|---------- --4--4--4--4-----------|---------- -----------------------|--2--2--2- -|-------------|-------------------- -|-------------|-------------------- -|-------------|--------------9----- -|----4--------|--------------9----- -|----4--------|--7--7--7--7-------- -|-2-----------|-------------------- W W W W -------------------|-------------- --3----------------|-------------- --2----------------|--6----------- --0----------------|--6----------- -------------------|--4----------- -------------------|-------------- -|-----|-------------------|-------- -|-----|-------------------|-------- -|-----|-------------------|-------- -|-----|--4----------------|--4----- -|-----|--4----------------|--4----- -|-----|--2----------------|--2----- S S S S S S S S S S S S S S S S ---------------------------------- ---------------------------------- --9-9-12-12-11-11-12-12-9-9-12-12- ---------------------------------- ---------------------------------- ---------------------------------- -|------------| -|------------| -|11-11-12-12-| -|------------| -|------------| -|------------| S S S S S S S S S S S S S S S S --------------------------------- --------------------------------- --9-9-12-12-11-11-12-12-14-14-12- --------------------------------- --------------------------------- --------------------------------- -|------------| -|------------| -|12-11-9-7-7-| -|------------| -|------------| -|------------| S S S S S S S S S S S S S S S S ---------------------------------- ---------------------------------- --9-9-12-12-11-11-12-12-9-9-12-12- ---------------------------------- ---------------------------------- ---------------------------------- -|------------| -|------------| -|11-11-12-12-| -|------------| -|------------| -|------------| S S S S S S S S S S Q E ---------------------------------- ---------------------------------- --9-9-12-12-11-11-12-12-14-14----- ------------------------------5--- ------------------------------3--- ---------------------------------- -|----| -|----| -|----| -|-7--| -|-5--| -|----| S S S S S S S S S S S S S S S S ---------------------------------- ---------------------------------- --9-9-12-12-11-11-12-12-9-9-12-12- ---------------------------------- ---------------------------------- ---------------------------------- -|------------| -|------------| -|11-11-12-12-| -|------------| -|------------| -|------------| S S S S S S S S S S S S S S S S --------------------------------- --------------------------------- --9-9-12-12-11-11-12-12-14-14-12- --------------------------------- --------------------------------- --------------------------------- -|------------| -|------------| -|12-11-9-7-7-| -|------------| -|------------| -|------------| S S S S S S S S S S S S S S S S ---------------------------------- ---------------------------------- --9-9-12-12-11-11-12-12-9-9-12-12- ---------------------------------- ---------------------------------- ---------------------------------- -|------------| -|------------| -|11-11-12-12-| -|------------| -|------------| -|------------| S S S S S S S S S S S S S S S S --------------------------------- --------------------------------- --9-9-12-12-11-11-12-12-14-14-12- --------------------------------- --------------------------------- --------------------------------- -|------------| -|------------| -|12-11-9-7-7-| -|------------| -|------------| -|------------| S S S S S S S S S S S S S S S S -------------------------------- -------------------------------- --11-11-14-14-13-13-14-14-11-11- -------------------------------- -------------------------------- -------------------------------- -|------------------| -|------------------| -|14-14-13-13-14-14-| -|------------------| -|------------------| -|------------------| S S S S S S S S S S S S S S S S -------------------------------- -------------------------------- --11-11-14-14-13-13-14-14-11-11- -------------------------------- -------------------------------- -------------------------------- -|----------------| -|----------------| -|14-14-13-11-9-9-| -|----------------| -|----------------| -|----------------| S S S S S S S S S S S S S S S S -------------------------------- -------------------------------- --11-11-14-14-13-13-14-14-11-11- -------------------------------- -------------------------------- -------------------------------- -|------------------| -|------------------| -|14-14-13-13-14-14-| -|------------------| -|------------------| -|------------------| S S S S S S S S S S Q E ---------------------------------- ---------------------------------- --11-11-14-14-13-13-14-14-11-11--- --------------------------------7- --------------------------------5- ---------------------------------- -|------| -|------| -|------| -|---9--| -|---7--| -|------| S S S S S S S S S S S S S S S S -------------------------------- -------------------------------- --11-11-14-14-13-13-14-14-11-11- -------------------------------- -------------------------------- -------------------------------- -|------------------| -|------------------| -|14-14-13-13-14-14-| -|------------------| -|------------------| -|------------------| S S S S S S S S S S S S S S S S -------------------------------- -------------------------------- --11-11-14-14-13-13-14-14-11-11- -------------------------------- -------------------------------- -------------------------------- -|----------------| -|----------------| -|14-14-13-11-9-9-| -|----------------| -|----------------| -|----------------| S S S S S S S S S S S S S S S S -------------------------------- -------------------------------- --11-11-14-14-13-13-14-14-11-11- -------------------------------- -------------------------------- -------------------------------- -|------------------| -|------------------| -|14-14-13-13-14-14-| -|------------------| -|------------------| -|------------------| S S S S S S S S S S S S S S S S W -------------------------------- -------------------------------- --11-11-14-14-13-13-14-14-11-11- -------------------------------- -------------------------------- -------------------------------- -|----------------|-------------------| -|----------------|-------------------| -|14-14-13-11-9-9-|-------------------| -|----------------|--4----------------| -|----------------|--4----------------| -|----------------|--2----------------| W W W W -------------------|-------------- -------------------|--3----------- -------------------|--2----------- --L----------------|--0----------- --L----------------|-------------- --L----------------|-------------- -|-----|-------------------|-------- -|-----|--L----------------|-------- -|-----|--L----------------|--2----- -|-----|--L----------------|--2----- -|-----|-------------------|--0----- -|-----|-------------------|-------- W W W W -------------------|-------------- -------------------|-------------- --L----------------|-------------- --L----------------|--2----------- --L----------------|--2----------- -------------------|--0----------- -|-----|-------------------|-------- -|-----|-------------------|-------- -|-----|-------------------|-------- -|-----|--L----------------|--4----- -|-----|--L----------------|--4----- -|-----|--L----------------|--2----- W W W W -------------------|-------------- -------------------|--3----------- -------------------|--2----------- --L----------------|--0----------- --L----------------|-------------- --L----------------|-------------- -|-----|-------------------|-------- -|-----|--L----------------|-------- -|-----|--L----------------|--2----- -|-----|--L----------------|--2----- -|-----|-------------------|--0----- -|-----|-------------------|-------- W W W W -------------------|-------------- -------------------|-------------- --L----------------|-------------- --L----------------|--2----------- --L----------------|--2----------- -------------------|--0----------- -|-----|-------------------|-------- -|-----|-------------------|-------- -|-----|-------------------|-------- -|-----|--L----------------|--4----- -|-----|--L----------------|--4----- -|-----|--L----------------|--2----- Q E S S Q E S S Q E S S Q E S S --------------------------|------- --------------------------|------- ----------6-6-6----L------|------- --------------------------|------- --4----L--------------4-4-|--4---- --------------------------|------- -|-------------------| -|-------------------| -|---6-6-6----L------| -|-------------------| -|L--------------4-4-| -|-------------------| Q E S S Q E S S Q E S S Q E S S E Q H E --------------------------|------- --------------------------|------- ----------6-6-6----L------|------- --------------------------|------- --4----L--------------4-4-|--4---- --------------------------|------- -|-------------------|-------------- -|-------------------|-------------- -|---6-6-6----L------|-------------- -|-------------------|--2--4-------- -|L--------------4-4-|--2--4-------- -|-------------------|--0--2-------- Duration Legend --------------- W - whole H - half Q - quarter E - 8th S - 16th T - 32nd X - 64th . - note dotted |-n-| - n-tuplets Tablature Legend ---------------- L - tied note x - dead note g - grace note (n) - ghost note > - accentuded note NH - natural harmonic AH - artificial harmonic TH - tapped harmonic SH - semi harmonic PH - pitch harmonic h - hammer on p - pull off b - bend br - bendRelease pb - preBend pbr - preBendRelease brb - bendReleaseBend \n/ - tremolo bar dip \n - tremolo bar dive -/n - tremolo bar Release up /n\ - tremolo bar inverted dip /n - tremolo bar return -\n - tremolo bar Release down S - shift slide s - legato slide / - slide into from below or out of upwards \ - slide into from above or out of downwards ~ - vibrato W - wide vibrato tr - trill TP - tremolo picking T - tapping S - slap P - pop < - fade in ^ - brush up v - brush down
Composición: Colaboración y revisión: Taino Vieira

Utilizamos cookies para personalizar sua experiência. Ao acessar o site, você concorda com a nossa Política de Privacidade.