Sweet Escape

Gwen Stefani

Tono: G
Standard Tuning
-Intro and Verses-

#1t1#                                           Chords during verse
#1t2#e---6-----4----3-----2------------     -------------------|
b---6-----6----4-----2------------     -------------------|
g---7-----6----3-----3------------     -------------------|
d---------------------------------     ----8---6---5---4--|
a---------------------------------     ----8---6---5---4--|
e---------------------------------     ----6---4---3---2--|#/1t2##/1t1#

#2t1##2t2#-Chorus-#/2t2##/2t1#

#3t1##3t2#e---------------------------------------------|
b---------------------------------------------|
g----6----6-----------------------------------|
d----6----6----8-----3----4----6--------------|
a----4----3----8-----3----4----6--------------|
e----4----3----6-----1----2----4--------------|#/3t2##/3t1#
Composición: Aliaune Akon Thiam / Giorgio TuinfortColaboración y revisión: Élison Duarte