Bubble Pop Electric

Gwen Stefani

Tono: G
intro

#1t1##1t2#E|--------------------------------------|
B|--------------------------------------|
G|-------------------6-6-6-6------------|
D|---7-7-7-7-6-6-6-6---------4-4-4-4----|
A|------------------4-4-4-4-------------|
E|--5-5-5-5-4-4-4-4---------2-2-2-2-----|#/1t2##/1t1#

verse

#2t1##2t2#E|--------------------------------|
B|--------------------------------|
G|--------------------------------|
D|--------------------------------|
A|----------4-4-------------------|
E|--5-5-4-4-----2-2---------------|#/2t2##/2t1#

Im not sure how many times to play each note but you should be able to figure it out

chorus

#3t1##3t2#E|--------------------------------------|
B|--------------------------------------|
G|--------------------6-6-6-6-----------|
D|--7-7-7-7--6-6-6-6--4-4-4-4--4-4-4-4--|
A--7-7-7-7--6-6-6-6--4-4-4-4--4-4-4-4--|
E|--5-5-5-5--4-4-4-4-----------2-2-2-2--|#/3t2##/3t1#

thats preety much it
Composición: Gwen StefaniColaboración y revisión: Élison Duarte