Rockets Fall On Rocket Falls

Godspeed You! Black Emperor

Tono: G
             ROCKETS FALL ON ROCKET 
FALLS - Godspeed You! Black Emperor
Tabbed by: chris niedbala
Email: *

Tuning: standard

this is the guitar for the first 
part of the song, before the first 
crescendo


e|-------------------------------
B|--------3--------3---------3---
G|-----4--------4---------4------
D|--4--------4---------4---------
A|-------------------------------
E|-------------------------------

e|-----------------------------------------| 
B|------3----------------------------------| 
G|---4-------------------------------------| 
D|4----------------------------------------| 
A|-----------------------------------------| 
E|-----------------------------------------| 



e|-------------------------------
B|--------2--------2---------2---
G|-----3--------3---------3------
D|--4--------4---------4---------
A|-------------------------------
E|-------------------------------

e|-----------------------------------------| 
B|------2----------------------------------| 
G|---3-------------------------------------| 
D|4----------------------------------------| 
A|-----------------------------------------| 
E|-----------------------------------------| 


e|------------------------------- B|--------2--------2---------2--- G|-----3--------3---------3------ D|--3--------3---------3--------- A|------------------------------- E|------------------------------- e|-----------------------------------------| B|------2----------------------------------| G|---3-------------------------------------| D|3----------------------------------------| A|-----------------------------------------| E|-----------------------------------------| e|------------------------------- B|--------1--------1---------1--- G|-----2--------2---------2------ D|--3--------3---------3--------- A|------------------------------- E|------------------------------- e|-----------------------------------------| B|------1----------------------------------| G|---2-------------------------------------| D|3----------------------------------------| A|-----------------------------------------| E|-----------------------------------------| e|------------------------------- B|--------1--------1---------1--- G|-----2--------2---------2------ D|--2--------2---------2--------- A|------------------------------- E|------------------------------- e|-----------------------------------------| B|------1----------------------------------| G|---2-------------------------------------| D|2----------------------------------------| A|-----------------------------------------| E|-----------------------------------------| e|------------------------------- B|--------0--------0---------0--- G|-----1--------1---------1------ D|--2--------2---------2--------- A|------------------------------- E|------------------------------- e|-----------------------------------------| B|------0----------------------------------| G|---1-------------------------------------| D|2----------------------------------------| A|-----------------------------------------| E|-----------------------------------------| repeat until the 3:22 mark, and then play the same riff except starting on the b string going down, so its B|--3---------------| G|-----4------------| D|--------4---------|... and so B| G| D|on riff at 4:44 e|----------9----------9---------- B|--11--12-----11--12-----11--12-- G|-------------------------------- e|10----------10-------------------- B|----11--12------------------------ G|---------------------------------- e|------| B|------| G|------| e|----------10----------9--------- B|--11--12------11--12-----11--12- G|-------------------------------- e|-9-------------------------------- B|----11--12--11-------------------- G|----------------10---------7------ e|------| B|------| G|----x2| and that's that cheers
Composición: Colaboración y revisión: