Deus In Absentia

Ghost

Tono: G
#1t1#
Verse, play twice
#1t2#D|---------------------------------------|| x2
A|---7---7-7---7-7------5----5-5-7------:||
F|---6---6-7---7-6--qr--6-qr-6-6-6--qr---||
C|---4---4-7---7-4------6----6-6-4-------||
G|---------5---5--------4----4-4--------:||
D|---------------------------------------||#/1t2##/1t1#



#2t1#chorus
#2t2#D|--------------0----------------0------------------------0---------------0-----------0----
A|--------------0----------------0------------------------0---------------0----3------0----
F|----4-4-2-2---1------4-4-2-2---1-------7-7----4-4-2-2---1-----4-4-2-2---1----2--2---1----
C|----4-4-2-2---2------4-4-2-2---2--4-4--7-7----4-4-2-2---2-----4-4-2-2---2----0--2---2----
G|----2-2-0-0-2-2------2-2-0-0-2-2--4-4--5-5----2-2-0-0-2-2-----2-2-0-0-2-2-------0---2----
D|------------0-0--------------0-0--2-2-----------------0-0-------------0-0-----------0----#/2t2##/2t1#




#3t1#Verse
#3t2#D|------------------------------------------
A|----7---7-7---7-7------5----5-5-7---------
F|----6---6-7---7-6--qr--6-qr-6-6-6--qr-----
C|----4---4-7---7-4------6----6-6-4---------
G|----------5---5--------4----4-4-----------
D|------------------------------------------#/3t2##/3t1#



#4t1#Verse
#4t2#D|------------------------------------------------------
A|----7---7-7---7-7------5----------9-------------------
F|----6---6-7---7-6--qr--6-qr---------9-------8---------
C|----4---4-7---7-4------6--------------9-------9----4--
G|----------5---5--------4-----4/7----------------9--4--
D|-----------------------------------------7---------2--#/4t2##/4t1#



#5t1#Chorus, both guitars
#5t2#D|--------------0----------------0------------------------0---------------0----------------
A|--------------0----------------0------------------------0---------------0----3-----------
F|----4-4-2-2---1------4-4-2-2---1-------7-7----4-4-2-2---1-----4-4-2-2---1----2--2--qr----
C|----4-4-2-2---2------4-4-2-2---2--4-4--7-7----4-4-2-2---2-----4-4-2-2---2----0--2--------
G|----2-2-0-0-2-2------2-2-0-0-2-2--4-4--5-5----2-2-0-0-2-2-----2-2-0-0-2-2-------0--------
D|------------0-0--------------0-0--2-2-----------------0-0-------------0-0----------------#/5t2##/5t1#



#6t1#Chorus, guitar one
#6t2#D|--------------0----------------0------------------------0-4^5^4------------0-----------0--
A|--------------0----------------0------------------------0------------------0----3------0--
F|----4-4-2-2---1------4-4-2-2---1-------7-7----4-4-2-2---1--------4-4-2-2---1----2--2---1--
C|----4-4-2-2---2------4-4-2-2---2--4-4--7-7----4-4-2-2---2--------4-4-2-2---2----0--2---2--
G|----2-2-0-0-2-2------2-2-0-0-2-2--4-4--5-5----2-2-0-0-2-2--------2-2-0-0-2-2-------0---2--
D|------------0-0--------------0-0--2-2-----------------0-0----------------0-0-----------0--#/6t2##/6t1#


#7t1#Chorus, guitar two
#7t2#D|--------------0----------------0------------------------0------------------0-----------0--
A|--------------0----------------0------------------------0------------------0----3------0--
F|----4-4-2-2---1------4-4-2-2---1-------7-7----4-4-2-2---1-4^6^4--4-4-2-2---1----2--2---1--
C|----4-4-2-2---2------4-4-2-2---2--4-4--7-7----4-4-2-2---2--------4-4-2-2---2----0--2---2--
G|----2-2-0-0-2-2------2-2-0-0-2-2--4-4--5-5----2-2-0-0-2-2--------2-2-0-0-2-2-------0---2--
D|------------0-0--------------0-0--2-2-----------------0-0----------------0-0-----------0--#/7t2##/7t1#



#8t1#bridge
#8t2#D|---------------------------------------------------------
A|---------------------------------------------------------
F|-------9---11---9--------5---7---5-----------------7-----
C|-----9---9----9---9----5---5---5---5------5------7---7---
G|---7-----------------3------------------5---5--5---------
D|--------------------------------------3------------------#/8t2##/8t1#



#9t1#bridge
#9t2#D|----------------------------------------------------------------------
A|----------------------------------------------------------------------
F|-------9---11---9--------5---7---5-------------7-4-------7---9---7----
C|-----9---9----9---9----5---5---5---5------5------------7---7---7---7--
G|---7-----------------3------------------5---5--------5----------------
D|--------------------------------------3-------------------------------#/9t2##/9t1#



#10t1#bridge
#10t2#D|---------------------------------------------------------
A|---------------------------------------------------------
F|-------9---11---9--------5---7---5-----------------7-----
C|-----9---9----9---9----5---5---5---5------5------7---7---
G|---7-----------------3------------------5---5--5---------
D|--------------------------------------3------------------#/10t2##/10t1#




#11t1#bridge
#11t2#D|----------------------------------------------------------------------
A|----------------------------------------------------------------------
F|-------9---11---9--------5---7---5-------------7-4-------7---9---7----
C|-----9---9----9---9----5---5---5---5------5------------7---7---7---7--
G|---7-----------------3------------------5---5--------5----------------
D|--------------------------------------3-------------------------------#/11t2##/11t1#



#12t1#SOLO, GUITAR ONE
#12t2#D|------------------------------------------------------------------------------------------
A|--------------------------------------------------------------------12---10^9-------------
F|---13^b--11--13^b-13--11-9---11-13-13^b-11--13^b-13--11-9-----=-9------9------11----------
C|------------------------------------------------------------=-9---9-----------------------
G|------------------------------------------------------------7-----------------------------
D|------------------------------------------------------------------------------------------#/12t2##/12t1#



#13t1#SOLO, GUITAR ONE
#13t2#D|------------------------------------------------------------------------------------------
A|--------------------------------------------------------------------12---10^9-------------
F|---13^b--11--13^b-13--11-9---11-13-13^b-11--13^b-13--11-9-----=-9------9------11---REST---
C|------------------------------------------------------------=-9---9-----------------------
G|------------------------------------------------------------7-----------------------------
D|------------------------------------------------------------------------------------------#/13t2##/13t1#



#14t1#SOLO, GUITAR TWO
#14t2#D|------------------------------------------------------------------------------------------
A|----------------------------------------------------------------------12---10^9-----------
F|---11--11^9------9^11-9------------11--11^9-----9^11-9----------=-9------9------11--------
C|------------11----------12-11--9------------11---------12-11--=-9---9---------------------
G|--------------------------------------------------------------7---------------------------
D|------------------------------------------------------------------------------------------#/14t2##/14t1#



#15t1#SOLO, GUITAR TWO
#15t2#D|------------------------------------------------------------------------------------------
A|----------------------------------------------------------------------12---10^9-----------
F|---11--11^9------9^11-9------------11--11^9-----9^11-9----------=-9------9------11--REST--
C|------------11----------12-11--9------------11---------12-11--=-9---9---------------------
G|--------------------------------------------------------------7---------------------------
D|------------------------------------------------------------------------------------------#/15t2##/15t1#




#16t1#Verse
#16t2#D|------------------------------------------
A|----7---7-7---7-7------5----5-5-7---------
F|----6---6-7---7-6--qr--6-qr-6-6-6--qr-----
C|----4---4-7---7-4------6----6-6-4---------
G|----------5---5--------4----4-4-----------
D|------------------------------------------#/16t2##/16t1#



#17t1#Verse
#17t2#D|------------------------------------------------------
A|----7---7-7---7-7------5----------9-------------------
F|----6---6-7---7-6--qr--6-qr---------9-------8---------
C|----4---4-7---7-4------6--------------9-------9----4--
G|----------5---5--------4-----4/7----------------9--4--
D|-----------------------------------------7---------2--#/17t2##/17t1#



#18t1#Chorus, both guitars
#18t2#D|--------------0----------------0------------------------0---------------0----------------
A|--------------0----------------0------------------------0---------------0----3-----------
F|----4-4-2-2---1------4-4-2-2---1-------7-7----4-4-2-2---1-----4-4-2-2---1----2--2--qr----
C|----4-4-2-2---2------4-4-2-2---2--4-4--7-7----4-4-2-2---2-----4-4-2-2---2----0--2--------
G|----2-2-0-0-2-2------2-2-0-0-2-2--4-4--5-5----2-2-0-0-2-2-----2-2-0-0-2-2-------0--------
D|------------0-0--------------0-0--2-2-----------------0-0-------------0-0----------------#/18t2##/18t1#




#19t1#Chorus, guitar one
#19t2#D|--------------0----------------0------------------------0-4^5^4------------0-----------0--
A|--------------0----------------0------------------------0------------------0----3------0--
F|----4-4-2-2---1------4-4-2-2---1-------7-7----4-4-2-2---1--------4-4-2-2---1----2--2---1--
C|----4-4-2-2---2------4-4-2-2---2--4-4--7-7----4-4-2-2---2--------4-4-2-2---2----0--2---2--
G|----2-2-0-0-2-2------2-2-0-0-2-2--4-4--5-5----2-2-0-0-2-2--------2-2-0-0-2-2-------0---2--
D|------------0-0--------------0-0--2-2-----------------0-0----------------0-0-----------0--#/19t2##/19t1#



#20t1#Chorus, guitar two
#20t2#D|--------------0----------------0------------------------0------------------0-----------0--
A|--------------0----------------0------------------------0------------------0----3------0--
F|----4-4-2-2---1------4-4-2-2---1-------7-7----4-4-2-2---1-4^6^4--4-4-2-2---1----2--2---1--
C|----4-4-2-2---2------4-4-2-2---2--4-4--7-7----4-4-2-2---2--------4-4-2-2---2----0--2---2--
G|----2-2-0-0-2-2------2-2-0-0-2-2--4-4--5-5----2-2-0-0-2-2--------2-2-0-0-2-2-------0---2--
D|------------0-0--------------0-0--2-2-----------------0-0----------------0-0-----------0--#/20t2##/20t1#
Composición: A Nameless GhoulColaboración y revisión: cristian riquelme