Amor Pra Recomeçar

Frejat

A4(7)
12
X02030
Am7
12
X02010
C
123
X32010
C/D
1
XX0010
C9(11+)
1234
X32032
D/F#
1234
2X0232
D5(9)/F#
123
200230
D9
12
XX0230
D9(11)
123
X54030
Dm7
34
X57565
Dm7(9)
1234
X5355X
Em7(9)
1234
X7577X
F5(7M/9)
13
XX3010
F7M
1234
1X221X
G
123
320003
Tono: G
[Intro] G  D9(11)  C
        G  D9(11)  C

[Parte 1 de 2]

#1t1#       G                 D9(11)
#1t2#E|-----------------------------------------|
B|-0h1-3-----------3---------3-------------|
G|-0---0-0---0-----0-----0---0---0---------|
D|-------------0---------4---4---4---------|
A|-----------------------5-5---5-5---------|
E|-----3---3-----3-------------------------|#/1t2##/1t1#

[Parte 2 de 2]

#2t1#   C
#2t2#E|-----------------------------------------|
B|------1--1---1------1-1------------------|
G|-0----0--0---0------0-0------------------|
D|-2----2--2---2------2-2------------------|
A|-3--3------3---3--3----------------------|
E|-----------------------------------------|#/2t2##/2t1#

[Primeira parte]

G                             A4(7)
  Eu te desejo não parar tão cedo
            C9(11+)
Pois toda idade tem prazer e medo
G                               A4(7)
  E com os que erram feio e bastante
       C9(11+)            F5(7M/9)
Que você consiga ser tolerante

[Parte 1 de 4]

#3t1#   G                 A4(7)
#3t2#E|-------3-------3---------0-------0-------|
B|-------3-------3---------3-------3-------|
G|-----0-------0---------0-------0---------|
D|---0-------0---------2-------2-----------|
A|-------------------0-------0-------------|
E|-3-------3-------------------------------|#/3t2##/3t1#

[Parte 2 de 4]

#4t1#   C9(11+)
#4t2#E|-------0-------0-------0-------0---------|
B|-------3-------3-------3-------3---------|
G|-----0-------0-------0-------0-----------|
D|---4-------4-------4-------4-------------|
A|-3-------3-------3-------3---------------|
E|-----------------------------------------|#/4t2##/4t1#

[Parte 3 de 4]

#5t1#   G                 A4(7)
#5t2#E|-------3-------3---------0-------0-------|
B|-------3-------3---------3-------5-------|
G|-----0-------0---------0-------0---------|
D|---0-------0---------2-------4-----------|
A|-------------------0-------0-------------|
E|-3-------3-------------------------------|#/5t2##/5t1#

[Parte 4 de 4]

#6t1#   C9(11+)            F7M
#6t2#E|-------0-------0---------0-------0-------|
B|-------3-------3-------1-------1---------|
G|-----0-------0-------2-------2-----------|
D|---4-------4-------3-------3-------------|
A|-3-------3-------------------------------|
E|-----------------------------------------|#/6t2##/6t1#

[Segunda parte]

Em7(9)
       Quando você ficar triste
     Dm7             Em7(9)                Am7
Que seja por um dia,        e não o ano inteiro
Em7(9)                          Dm7
       E que você descubra que rir é bom
         Em7(9)             Am7
Mas que rir de tudo é desespero

[Parte 1 de 2]

#7t1#    Em7(9)       Dm7
#7t2#E|--2--------2-----1--------1--------------|
B|--3----3---3-----1---1----1--------------|
G|-------0-------------2-------------------|
D|---------------0---0----0----------------|
A|-----------------------------------------|
E|--0--0---0-------------------------------|#/7t2##/7t1#

[Parte 2 de 2]

#8t1#    Em7(9)       Am7
#8t2#E|--2--------2-----3---------3-------------|
B|--3----3---3-----1---1-----1-------------|
G|-------0-------------0-------------------|
D|-----------------------------------------|
A|---------------0---0-----0---------------|
E|--0--0---0-------------------------------|#/8t2##/8t1#

[Refrão]

   G   Am7                    D9(11)
Desejo     que você tenha a quem amar
              C9(11+)        Em7(9)
E quando estiver bem cansado
 G     Am7                    D9(11)
Ainda,     exista amor pra recomeçar
C/D        G      D9(11)     C
    Pra recomeçar

[Parte 1 de 5]

#9t1#   G                 Am7
#9t2#E|---3----3p2-0--------3----3--3---3-------|
B|---3----3---3-1p0----1----1--1---1-------|
G|---0----0------------0----0--0---0-------|
D|-----------------------------------------|
A|-------------------0----0------0---------|
E|-3----3----------------------------------|#/9t2##/9t1#

[Parte 2 de 5]

#10t1#   D9(11)
#10t2#E|---5----5--5---5--3----2-----2-----------|
B|---3----3--3---3----3----0-----0---------|
G|---0----0--0---0------0----0-------------|
D|-----------------------------------------|
A|-5----5------5---------------------------|
E|-----------------------------------------|#/10t2##/10t1#

[Parte 3 de 5]

#11t1#   C9(11+)             Em7(9)
#11t2#E|-----------------------------------------|
B|-------3--------3---------3-------3------|
G|-----0--------0---------0-------0--------|
D|---4--------4---------4-------4----------|
A|-3--------3------------------------------|
E|--------------------0-------0------------|#/11t2##/11t1#

[Parte 4 de 5]

#12t1#   G                 Am7
#12t2#E|---3-----------------3----3--3---3-------|
B|---3----3p1p0--------1----1--1---1-------|
G|---0----------2p0----0----0--0---0-------|
D|-----------------------------------------|
A|-------------------0---0-------0---------|
E|-3----3----------------------------------|#/12t2##/12t1#

[Parte 5 de 5]

#13t1#   D9(11)              C/D
#13t2#E|---5----5--5---5-------------------------|
B|---3----3--3---3--5----------------------|
G|---0----0--0---0--5----------------------|
D|------------------5----------------------|
A|-5----5------5----5----------------------|
E|-----------------------------------------|#/13t2##/13t1#

[Primeira parte]

G                        A4(7)
  Eu te desejo, muitos amigos
           C9(11+)
Mas que em um você possa confiar
G                     A4(7)
  E que tenha até inimigos
       C9(11+)              F5(7M/9)
Pra você não deixar de duvidar

[Segunda parte]

Em7(9)
       Quando você ficar triste
     Dm7             Em7(9)                Am7
Que seja por um dia,        e não o ano inteiro
Em7(9)                          Dm7(9)
       E que você descubra que rir é bom
         Em7(9)             Am7
Mas que rir de tudo é desespero

[Segunda Parte]

[Parte 1 de 2]

#14t1#    Em7(9)           Dm7(9)
#14t2#E|--2--------2---------------0-------------|
B|--3----3---3-------------6---6-----------|
G|-------0---------------5-------5---------|
D|---------------------0-----------0-------|
A|-------------------5---------------------|
E|--0--0---0-------------------------------|#/14t2##/14t1#

[Refrão]

   G   Am7                    D9(11)
Desejo     que você tenha a quem amar
              C9(11+         Em7(9)
E quando estiver bem cansado
 G     Am7                    D9(11)
Ainda,     exista amor pra recomeçar
       G      Am7
Pra recomeçar

[Refrão]

[Parte 4 de 5]

#15t1#   D9(11)
#15t2#E|-----------------------------------------|
B|---3---3--3---3----3----3--3----3--------|
G|---0---0--0---0----0----0--0----0--------|
D|---4---4--4---4----4----4--4----4--------|
A|-5---5------5----5----5-------5----------|
E|-----------------------------------------|#/15t2##/15t1#

( D9(11)  C9(11+) )
( D9(11)  C9(11+) )

[Terceira parte]

      D5(9)/F#
Eu desejo que você ganhe dinheiro
           C9(11+)
Pois é preciso viver também
         D5(9)/F#
E que você diga a ele, pelo menos uma vez
        Em7(9)         C9(11+)  D9
Quem é mesmo dono de quem

[Parte 1 de 8]

#16t1#   D9(11)
#16t2#E|-----------------------------------------|
B|-------3--------3-------3-------3--------|
G|-----0--------0-------0-------0----------|
D|---4--------4-------4-------4------------|
A|-5--------5-------5-------5--------------|
E|-----------------------------------------|#/16t2##/16t1#

[Parte 2 de 8]

#17t1#   C9(11+)
#17t2#E|-----------------------------------------|
B|-------3--------3-------3-------3--------|
G|-----0--------0-------0-------0----------|
D|---4--------4-------4-------4------------|
A|-3--------3-------3-------3--------------|
E|-----------------------------------------|#/17t2##/17t1#

[Parte 3 de 8]

#18t1#   C9(11+)
#18t2#E|-----------------------------------------|
B|-------3-------3-------3-----------------|
G|-----0-------0-------0---2h3p2p0---------|
D|---4-------4-------4-------------2p0-----|
A|-3-------3-------3-------------------2p0-|
E|-----------------------------------------|#/18t2##/18t1#

[Parte 4 de 8]

#19t1#   D/F#
#19t2#E|-----------------------------------------|
B|-------3--------3--------3-------3-------|
G|-----2--------2--------2-------2---------|
D|---0--------0--------0-------0-----------|
A|-----------------------------------------|
E|-2-------2---------2-------2-------------|#/19t2##/19t1#

[Parte 5 de 8]

#20t1#   Em7(9)            C9(11+)
#20t2#E|-------2--------2------------------------|
B|-----3--------3----------3-------3-------|
G|---0--------0----------0-------0---------|
D|---------------------4-------4-----------|
A|-------------------3-------3-------------|
E|-0--------0------------------------------|#/20t2##/20t1#

[Parte 6 de 8]

#21t1#   D9
#21t2#E|-0-----0------0---0-----0----------------|
B|-10----10-----10--10----10---------------|
G|-9h11--11-----11--11----11---------------|
D|-0-----0------0---0-----0----------------|
A|-----------------------------------------|
E|-0---------0----------0------------------|#/21t2##/21t1#

[Parte 7 de 8]

#22t1#   D9
#22t2#E|-------0------0---0----------------------|
B|-------10-----10--10-----8--x-7-7-x-5----|
G|-------11-----11--11-----0--x-0-0-x-0----|
D|-------0------0---0---------x-----x-0----|
A|-------------------------7--x-5-5-x-3----|
E|-0---------0----------0------------------|#/22t2##/22t1#

[Parte 8 de 8]

#23t1##23t2#E|-----------------------------------------|
B|-5-5-5-5-5-5-5-5-------------------------|
G|-0-0-0-0-0-0-0-0-------------------------|
D|-0-0-0-0-0-0-0-0-------------------------|
A|-3-3-3-3-3-3-3-3-------------------------|
E|-----------------------------------------|#/23t2##/23t1#

[Refrão]

   G   Am7                    D9(11)
Desejo     que você tenha a quem amar
              C9(11+)        Em7(9)
E quando estiver bem cansado
 G    Am7                    D9(11)
Ainda,    exista amor pra recomeçar

   G   Am7                    D9(11)
Desejo     que você tenha a quem amar
              C9(11+)        Em7(9)
E quando estiver bem cansado
 G    Am7                    D9(11)
Ainda,    exista amor pra recomeçar
C/D        G      D9(11)  C
    Pra recomeçar
G  D9(11)  C
        Recomeçar
G  D9(11)  C
        Recomeçar

( G  D9(11)  F7M  Em7(9) )

[Parte 1 de 2]

#24t1#       G                 D9(11)        F7M
#24t2#E|--------------------------------------1--|
B|-0h1-3-----------3---------3----------2--|
G|-0---0-0---0-----0-----0---0---0--2------|
D|-------------0---------4---4---4--3------|
A|-----------------------5-5---5-5---------|
E|-----3---3-----3-------------------------|#/24t2##/24t1#

[Parte 2 de 2]

#25t1#   Em7(9)
#25t2#E|-2---------------------------------------|
B|-3---------------------------------------|
G|-0---------------------------------------|
D|-----------------------------------------|
A|-----------------------------------------|
E|-0---------------------------------------|#/25t2##/25t1#
Composición: Frejat / Maurício Barros / Mauro Sta. CecíliaColaboración y revisión: deivid diasCaroline Leroy
videoclase Amor Pra Recomeçar (aula de violão completa)