Take Me Out

Franz Ferdinand

Am
3
XX7P555
Bm
34
799777
C
XXP555X
D
XXP777X
Em
234
X79987
Tono: G
Introdução:

(Guitarra 1)


E|-------------------------------
B|-------------------------------
G|-------------------------------
D|-------------------------------
A|-7-7-7-7-7-7-7-7-7-7-7-7-7-7-7-
E|-------------------------------

E|----------------------| 
B|----------------------| 
G|----------------------| 
D|----------------------| 
A|7---------------------| 
E|----------------------| 



E|-------------------------------
B|-------------------------------
G|-------------------------------
D|-------------------------------
A|-7-7-7-7-7-7-7-7-7-7-7-7-7-7-7-
E|-------------------------------

E|----------------------| 
B|----------------------| 
G|----------------------| 
D|----------------------| 
A|7---------------------| 
E|----------------------| 



E|-------------------------------
B|-------------------------------
G|-------------------------------
D|-------------------------------
A|-10-10-10-10-10-10-10-10-9-9-9-
E|-------------------------------

E|----------------------| 
B|----------------------| 
G|----------------------| 
D|----------------------| 
A|9-9-9-9-9-------------| 
E|----------------------| 



E|-------------------------------
B|-------------------------------
G|-------------------------------
D|-------------------------------
A|-14-14-14-14-12-12-12-10-10-10-
E|-------------------------------

E|----------------------| 
B|----------------------| 
G|----------------------| 
D|----------------------| 
A|10-10-10--------------| 
E|---------10-10-10-----| 



E|-------------------------------
B|-------------------------------
G|-------------------------------
D|-------------------------------
A|-10-10-10-10-10-10-10-10-9-9-9-
E|-------------------------------

E|----------------------| 
B|----------------------| 
G|----------------------| 
D|----------------------| 
A|9-9-9-9-9-------------| 
E|----------------------| 



E|-------------------------------
B|-------------------------------
G|-------------------------------
D|-------------------------------
A|-14-14-14-14-12-12-12-10-10-10-
E|-------------------------------

E|----------------------| 
B|----------------------| 
G|----------------------| 
D|----------------------| 
A|10-10-10-10-10--------| 
E|---------------10-12--| 



E|-------------------------------
B|-------------------------------
G|-------------------------------
D|-------------------------------
A|-10-10-10-10-10-10-10-10-9-9-9-
E|-------------------------------

E|----------------------| 
B|----------------------| 
G|----------------------| 
D|----------------------| 
A|9-9-9-9-9-------------| 
E|----------------------| 



E|-------------------------------
B|-------------------------------
G|-------------------------------
D|-------------------------------
A|-14-14-14-14-12-12-12-10-10-10-
E|-------------------------------

E|----------------------| 
B|----------------------| 
G|----------------------| 
D|----------------------| 
A|10-10-10----10--------| 
E|---------10----10-----| 



E|-------------------------------
B|-------------------------------
G|-------------------------------
D|-------------------------------
A|-10-10-10-10-10-10-10-10-9-9-9-
E|-------------------------------

E|----------------------| 
B|----------------------| 
G|----------------------| 
D|----------------------| 
A|9-9-9-9-9-------------| 
E|----------------------| 



E|-------------------------------
B|-------------------------------
G|-------------------------------
D|-------------------------------
A|-14-14-14-14-12-12-12-10-10-10-
E|-------------------------------

E|----------------------| 
B|----------------------| 
G|----------------------| 
D|----------------------| 
A|10-10-10-10-10-10-----| 
E|----------------------| 


(Guitarra 1 – Parte 2)


E|--------------------------------
B|--------------------------------
G|--------------------------------
D|--------------------------------
A|-10-10-10-10-12-12-12-7-7-7-7-7-
E|--------------------------------

E|---------------------| 
B|---------------------| 
G|---------------------| 
D|---------------------| 
A|7-7-7-7--------------| 
E|---------------------| 



E|-------------------------------
B|-------------------------------
G|-------------------------------
D|-------------------------------
A|-5-5-5-5-7-7-5-7---------------
E|-----------------0-0-0-0-0-0-0-

E|----------------------| 
B|----------------------| 
G|----------------------| 
D|----------------------| 
A|----------------------| 
E|0---------------------| 



E|-------------------------------
B|-------------------------------
G|-------------------------------
D|-------------------------------
A|-5-5-5-5-5-5-5-5-5-5-5-5-5-5-5-
E|-------------------------------

E|----------------------| 
B|----------------------| 
G|----------------------| 
D|----------------------| 
A|5---------------------| 
E|----------------------| 



E|-------------------------------
B|-------------------------------
G|-------------------------------
D|-------------------------------
A|-3-3-3-3-3-3-3-3-3-3-3-3-3-3-3-
E|-------------------------------

E|----------------------| 
B|----------------------| 
G|----------------------| 
D|----------------------| 
A|3/--------------------| 
E|----------------------| 



E|-----------------------------
B|-----------------------------
G|------------------------9...-
D|-------------------9...-9...-
A|--------------7...-7...-7...-
E|-0-0-0-0-0...-0...-0...-0...-

E|------------------------| 
B|8...--------------------| 
G|9...--------------------| 
D|9...--------------------| 
A|7...--------------------| 
E|0...--------------------| 



E|--------------------------------
B|-8----8----8--------------------
G|-9----9----9--------------------
D|-9----9----9--------------------
A|-7----7----7----7-7-7-7-7-------
E|--------------------------------


(Guitarra 1 – Riff 1)


E|--------------------------------
B|-8-------------------8----------
G|----9--9-7----7-9~-----9--9-7---
D|-----------9------------------9-
A|--------------------------------
E|--------------------------------

E|---------------------| 
B|---------------------| 
G|7-9--9-9-------------| 
D|---------------------| 
A|---------------------| 
E|---------------------| 



E|-------------------------------
B|-8-------------------7-7-7-7-7-
G|----9--9-7----7-9--------------
D|-----------9-------------------
A|-------------------------------
E|-------------------------------

E|----------------------| 
B|7-7-7-7-7-------------| 
G|----------7-7-7-7-----| 
D|----------------------| 
A|----------------------| 
E|----------------------| 


(Guitarra 2 – Parte 1)


E|-------------------------------
B|-------------------------------
G|-9-----------------------------
D|-9-----------------------------
A|-7-7-7-7-7-7-7-7-7-7-7-7-7-7-7-
E|-0-----------------------------

E|----------------------| 
B|----------------------| 
G|----------------------| 
D|----------------------| 
A|7---------------------| 
E|----------------------| 



E|-------------------------------
B|-------------------------------
G|-------------------------------
D|-------------------------------
A|-7-7-7-7-7-7-7-7-7-7-7-7-7-7-7-
E|-------------------------------

E|----------------------| 
B|----------------------| 
G|----------------------| 
D|----------------------| 
A|7---------------------| 
E|----------------------| 



E|-------------------------------
B|-------------------------------
G|-------------------------------
D|-------------------------------
A|-7-7-7-7-7-7-7-7-9-9-9-9-9-9-9-
E|-------------------------------

E|----------------------| 
B|----------------------| 
G|----------------------| 
D|----------------------| 
A|9---------------------| 
E|----------------------| 



E|-------------------------------
B|-------------------------------
G|-------------------------------
D|-------------------------------
A|-10-10-10-10-9-9-9-7-7-7-7-7-7-
E|-------------------------------

E|----------------------| 
B|----------------------| 
G|----------------------| 
D|----------------------| 
A|7-7-7-----------------| 
E|----------------------| 



E|-------------------------------
B|-------------------------------
G|-------------------------------
D|-------------------------------
A|-7-7-7-7-7-7-7-7-9-9-9-9-9-9-9-
E|-------------------------------

E|----------------------| 
B|----------------------| 
G|----------------------| 
D|----------------------| 
A|9---------------------| 
E|----------------------| 



E|-------------------------------
B|-------------------------------
G|-------------------------------
D|-------------------------------
A|-10-10-10-10-9-9-9-7-7-7-7-7-7-
E|-------------------------------

E|----------------------| 
B|----------------------| 
G|----------------------| 
D|----------------------| 
A|7-7-7-----------------| 
E|----------------------| 



E|-------------------------------
B|-------------------------------
G|-------------------------------
D|-------------------------------
A|-7-7-7-7-7-7-7-7-9-9-9-9-9-9-9-
E|-------------------------------

E|----------------------| 
B|----------------------| 
G|----------------------| 
D|----------------------| 
A|9---------------------| 
E|----------------------| 



E|-------------------------------
B|-------------------------------
G|-------------------------------
D|-------------------------------
A|-10-10-10-10-9-9-9-7-7-7-7-7-7-
E|-------------------------------
E|-------------------------------
B|-------------------------------
G|-------------------------------
D|-------------------------------
A|-7-7-7-7-7-7-7-7-9-9-9-9-9-9-9-
E|-------------------------------

E|----------------------| 
B|----------------------| 
G|----------------------| 
D|----------------------| 
A|7-7-7-----------------| 
E|----------------------| 
----------------------| 
----------------------| 
----------------------| 
----------------------| 
9---------------------| 
----------------------| 



E|-------------------------------
B|-------------------------------
G|-------------------------------
D|-------------------------------
A|-10-10-10-10-9-9-9-7-7-7-7-7-7-
E|-------------------------------

E|----------------------| 
B|----------------------| 
G|----------------------| 
D|----------------------| 
A|7-7-7-----------------| 
E|----------------------| 


(Guitarra 2 – Parte 2)


E|--------------------------------
B|--------------------------------
G|--------------------------------
D|--------------------------------
A|-10-10-10-10-12-12-12-7-7-7-7-7-
E|--------------------------------

E|---------------------| 
B|---------------------| 
G|---------------------| 
D|---------------------| 
A|7-7-7-7--------------| 
E|---------------------| 



E|--------------------------------
B|--------------------------------
G|--------------------------------
D|--------------------------------
A|-5-5-5-5-5-7-7------------------
E|---------------0-0-0-0-0-0-0-0--



E|-------------------------------
B|-------------------------------
G|-------------------------------
D|-------------------------------
A|-----------------5-5-5-5-5-5-5-
E|-3-3-3-3-3-3-3-3---------------

E|----------------------| 
B|----------------------| 
G|----------------------| 
D|----------------------| 
A|5---------------------| 
E|----------------------| 



E|-------------------------------
B|-------------------------------
G|-------------------------------
D|-------------------------------
A|-----------------3-3-3-3-3-3-3-
E|-1-1-1-1-1-1-1-1---------------

E|----------------------| 
B|----------------------| 
G|----------------------| 
D|----------------------| 
A|3/--------------------| 
E|----------------------| 



E|--------------------------------
B|--------------------------------
G|----------9...------------------
D|----------9...------------------
A|----------7...------------------
E|-0-0-0...-0---------------------


(Guitarra 2 – Riff 1)


E|--------------------------------
B|--------------------------------
G|-7-7-7-7-7-7-7-7-7-9--7-9---7-7-
D|--------------------------------
A|--------------------------------
E|--------------------------------

E|---------------------| 
B|---------------------| 
G|7-7-7-7-7-7-7-9--7-9-| 
D|---------------------| 
A|---------------------| 
E|---------------------| 



E|--------------------------------
B|--------------------------------
G|-5-5-5-5-5-5-5-5-5-5-5-5-5-5----
D|--------------------------------
A|--------------------------------
E|--------------------------------


E|-------------------------------- B|-------------------------------- G|-7-7-7-7-7-7-7-5-5-4-4-2-2-2---- D|-------------------------------- A|-------------------------------- E|-------------------------------- Primeira Parte: So if you're lonely You know I'm here Waiting for you I'm just a crosshair I'm just a shot Away from you And if you leave here You leave me broken Shattered I lie I'm just a crosshair I'm just a shot Then we can die I know I won't be leaving here With you (Riff 1 – Guitarra 1) E|-------------------------------- B|-8-------------------8---------- G|----9--9-7----7-9~-----9--9-7--- D|-----------9------------------9- A|-------------------------------- E|-------------------------------- E|---------------------| B|---------------------| G|7-9--9-9-------------| D|---------------------| A|---------------------| E|---------------------| E|------------------------------- B|-8-------------------7-7-7-7-7- G|----9--9-7----7-9-------------- D|-----------9------------------- A|------------------------------- E|------------------------------- E|----------------------| B|7-7-7-7-7-------------| G|----------7-7-7-7-----| D|----------------------| A|----------------------| E|----------------------| (Riff 1 – Guitarra 2) E|-------------------------------- B|-------------------------------- G|-7-7-7-7-7-7-7-7-7-9--7-9---7-7- D|-------------------------------- A|-------------------------------- E|-------------------------------- E|---------------------| B|---------------------| G|7-7-7-7-7-7-7-9--7-9-| D|---------------------| A|---------------------| E|---------------------| E|-------------------------------- B|-------------------------------- G|-5-5-5-5-5-5-5-5-5-5-5-5-5-5---- D|-------------------------------- A|-------------------------------- E|-------------------------------- E|-------------------------------- B|-------------------------------- G|-7-7-7-7-7-7-7-5-5-4-4-2-2-2---- D|-------------------------------- A|-------------------------------- E|-------------------------------- Segunda Parte: (Guitarra 1) E|-----7-------7--------7-------7- B|-7h8-----7h8------7h8-----7h8--- G|-------------------------------- D|-------------------------------- A|-------------------------------- E|-------------------------------- E|------7-------7------| B|--7h8-----7h8--------| G|---------------------| D|---------------------| A|---------------------| E|---------------------| E|-----10-------10---------------- B|-7h8------7h8------------------- G|-------------------------------- D|-------------------------------- A|-------------------------------- E|-------------------------------- (Guitarra 2) E|-------------------------------- B|-------------------------------- G|-7-7-7-7-7-7-7-7-7-9--7-9---7-7- D|-------------------------------- A|-------------------------------- E|-------------------------------- E|---------------------| B|---------------------| G|7-7-7-7-7-7-7-9--7-9-| D|---------------------| A|---------------------| E|---------------------| E|-------------------------------- B|-------------------------------- G|-5-5-5-5-5-5-5-5-5-5-5-5-5-5---- D|-------------------------------- A|-------------------------------- E|-------------------------------- E|-------------------------------- B|-------------------------------- G|-7-7-7-7-7-7-7-5-5-4-4-2-2-2---- D|-------------------------------- A|-------------------------------- E|-------------------------------- Em I say don't you know Am You say you don't know Bm I say Em Take me out I say you don't show Am Don't move time is slow Bm I say Take me out (Riff 1) Terceira Parte: Em I say you don't know Am You say you don't go Bm I say Em Take me out If I move this could die Am If eyes move this could die Bm I want you To take me out (Riff 2) E|-------------------------------- B|-------------------------------- G|-9---9---9---x-9-x-x-7---------- D|-9---9---9---x-9-x-x-7---------- A|-7---7---7---x-7-x-x-7---------- E|-------------------------------- ↓ ↓ ↓ ↓ ↑ ↓ ↑ ↓ Ponte: E|------------------------------- B|------------------------------- G|------------------------------- D|-7-7-5-5-4-4------------------- A|-------------7-5-3-3-3-3-5-5-5- E|------------------------------- E|----------------------| B|----------------------| G|----------------------| D|----------------------| A|5---------------------| E|----------------------| Am C D I know I won't be leaving here Am C D I know I won't be leaving here Am C D I know I won't be leaving here Am C D I know I won't be leaving here With you (Riff 1) Quarta Parte: Em I say don't you know? Am You say you don't know Bm I say Em Take me out If I wane, this can die Am If I wane, this can die Bm I want you to Em Take me out If I move, this could die Am If I move, this could die Bm Come on Take me out (Riff 1) (Riff 2) Ponte: Am C D I know I won't be leaving here Am C D I know I won't be leaving here Am C D I know I won't be leaving here Am C D I know I won't be leaving here With you (Final)
Composición: Alex Kapranos / Bob Hardy / Nick McCarthy / Paul ThomsonColaboración y revisión: Vinícius DiasGabriel LorenaMarcos PerussoloÉlison Duartey más 4
videoclase Take Me Out (aula de guitarra)

Utilizamos cookies e outras tecnologias semelhantes para melhorar e personalizar sua experiência de uso. Ao navegar nos produtos, você concorda com as condições descritas em nossa Política de Privacidade.