Planet Of Weed

Fountains Of Wayne

Am
123
X02210
C
123
X32010
Dm
123
XX0231
E7
1234
022130
F
234
133211
G
123
320003
Tono: G
Traffic and Weather
___________________________________

Intro---

   C  E7  Fmaj x2


e|--------------------------------
B|--------------------------------
G|-------------5--------------4---
D|---5----7---------6----7--------
A|--------------------------------
E|--------------------------------

e|----------------------------------
B|----------------------------------
G|----------------------------------
D|-6/---------5--7--5--5------------
A|-------3-----------7/-------------
E|----------------------------------


  (the first line is also played after the first chorus)

e|--------------------------------
B|--------------------------------
G|-------------5--------------4---
D|---5----7---------6----7--------
A|--------------------------------
E|--------------------------------

e|----------------------------------
B|----------------------------------
G|----------------------------------
D|-6/---------5--7--5---------------
A|-------3-----------7/\\7----------
E|----------------------------------



Verse---

            C                      
I\'ve got everything I need Here on
     Am
 the Planet of Weed

            Dm
There\'s not much going on

         G
But it\'s just my speed

           C                       
There\'s no hatred and no greed 
        Am
Here on the Planet of Weed

      Dm                        G
Everyone gets along  It\'s quite 
pleasant indeed


Chorus--- F Dm Oh baby baby Won\'t you come with C me Set your mind at ease E7 Set your spirit free Fmaj G What a wonderful life we could Dm G lead, Together On the Planet of Weed Verse--- C We\'ve got magazines to read We\'ve Am Dm got Doritos to eat So lay back on the couch G And kick up your feet There\'s a C Am movie on TV I\'ve been meaning to see Dm G It\'s by Oliver Stone Chorus--- F Dm Oh baby baby Won\'t you come with C me Set your mind at ease E7 Set your spirit free Fmaj G What a wonderful life we could Dm G lead, Together E7 c/G Dm G Forever Life is better, On the Planet of Weed Outro--- (F C G C reapeat and fade out) e|------------------------------- B|------------------------------- G|----------4--5----------4--5--- D|--7-7--7--------5-5--5-------5- A|------------------------------- E|------------------------------- e|--------------------------------------| B|--------------------------------------| G|------4--7--5-5---5---5----5----------| D|5--5----------------7-----------------| A|------------------------5h7-----------| E|--------------------------------------| repeat and fade out -Liam J. Rider
Composición: Colaboración y revisión:

Utilizamos cookies para personalizar sua experiência. Ao acessar o site, você concorda com a nossa Política de Privacidade.