Blue Morning, Blue Day

Foreigner

Tono: G
Tabbed by: SGfreak911
Email: *

Tuning: Standard

Intro:


e|-------------------------------
B|-------------------------------
G|-------------------------------
D|-----------------------4-3-4-3-
A|-----------4-5-4-5-4-5---------
E|-7-6-7-6-7---------------------

e|----------| 
B|----------| 
G|----------| 
D|4-5-------| 
A|----------| 
E|----------| 



e|-------------------------------
B|-------------------------------
G|-------------------------------
D|-----------------------4-3-4-3-
A|-----------4-5-4-5-4-5---------
E|-7-6-7-6-7---------------------

e|----------| 
B|----------| 
G|----------| 
D|4-5-3-2-0-| 
A|----------| 
E|----------| 


The guitar doesn't come in til about
 30 seconds
of the song.


Verse:

e|--------------------------------
B|--------------------------------
G|--------------------------------
D|--------------------------------
A|-----2-5-2-0-4---2-5----2-5-2-0-
E|-2-5-----------3-----2-5--------

e|-----------| 
B|-----------| 
G|-----------| 
D|-----------| 
A|4----------| 
E|---3-2-3-2-| 



Chorus:

e|--------------| 
B|--------------| 
G|-4-------4----| 
D|-4-5-4---4----| 
A|-2-5-4-0-2----| 
E|---3-2--------| 



e|--------------| 
B|--------------| 
G|-4-------4----| 
D|-4-5-4---4----| 
A|-2-5-4-0-2----| 
E|---3-2--------| 


Then back into the intro

e|------------------------------- B|------------------------------- G|------------------------------- D|-----------------------4-3-4-3- A|-----------4-5-4-5-4-5--------- E|-7-6-7-6-7--------------------- e|----------| B|----------| G|----------| D|4-5-------| A|----------| E|----------| This time the verse has guitar right at the begining. Verse: e|-------------------------------- B|-------------------------------- G|-------------------------------- D|-------------------------------- A|-----2-5-2-0-4---2-5----2-5-2-0- E|-2-5-----------3-----2-5-------- e|-----------| B|-----------| G|-----------| D|-----------| A|4----2-----| E|---3-------| e|------------------------------- B|------------------------------- G|-------------4----------------- D|-4-4-4-7-7-7-4----------------- A|-4-4-4-7-7-7-2-5-2---4---2----- E|-2-2-2-5-5-5-------5---3---2-5- e|------------------| B|------------------| G|------------------| D|------------------| A|2-5-2-0-4---------| E|----------3-3-3-2-| Chorus: e|--------------| B|--------------| G|-4-------4----| D|-4-5-4---4----| A|-2-5-4-0-2----| E|---3-2--------| e|--------------| B|--------------| G|-4-------4----| D|-4-5-4---4----| A|-2-5-4-0-2----| E|---3-2--------| Chorus: e|--------------| B|--------------| G|-4-------4----| D|-4-5-4---4----| A|-2-5-4-0-2----| E|---3-2--------| Solo: e|------------------------------- B|------------------------------- G|-~ 13(b)-11-13(b)-11--------11- D|---------------------12--11---- A|------------------------------- E|------------------------------- e|---9/-14-9-10-| B|10------------| G|--------------| D|--------------| A|--------------| E|--------------| e|-------17------------------ B|-15-14--------------------- G|----------13h14p13-11-14--- D|------------------------11- A|--------------------------- E|--------------------------- e|------------------| B|------------------| G|13h14p13-11-14----| D|---------------11-| A|------------------| E|------------------| e|------------12h14p12---------- B|---------------------14------- G|13h14p13-11-------------14-11- D|------------------------------ A|------------------------------ E|------------------------------ e|12h14p12---------| B|---------14------| G|------------14-11| D|-----------------| A|-----------------| E|-----------------| e|14p12--------16(b)-14-------14- B|-----------14-----------17(b)-- G|---------14-------------------- D|------16----------------------- A|------------------------------- E|------------------------------- e|17------------------| B|--------------------| G|--------------------| D|--------------------| A|--------------------| E|--------------------| Chorus: e|--------------| B|--------------| G|-4-------4----| D|-4-5-4---4----| A|-2-5-4-0-2----| E|---3-2--------| e|------------------------------- B|------------------------------- G|------------------------------- D|-----------------------4-3-4-3- A|-----------4-5-4-5-4-5--------- E|-7-6-7-6-7--------------------- e|----------| B|----------| G|----------| D|4-5-------| A|----------| E|----------| e|------------------------------- B|------------------------------- G|------------------------------- D|-----------------------4-3-4-3- A|-----------4-5-4-5-4-5--------- E|-7-6-7-6-7--------------------- e|-------------13-15-17-19| B|----12----15------------| G|-------12---------------| D|4-5---------------------| A|------------------------| E|------------------------| | b bend | / slide up | \ slide down | h hammer-on | p pull-off | ~ vibrato | + harmonic
Composición: Colaboración y revisión:

Utilizamos cookies para personalizar sua experiência. Ao acessar o site, você concorda com a nossa Política de Privacidade.