Slow Ride

Foghat

Tono: G
 {INTRO}


E|--------------------------------
B|--------------------------------
G|-2--2--2--2--2--2---2-----------
D|-2--2--2--2--2--2---2-----------
A|-0---------------------3--0--3B-
E|--------------------------------

E|---------------------------|  
B|---------------------------|  
G|----2--2-----2--2-----2----|  
D|-2--2--2--2--2--2--2--2----|  
A|-0--------0--------0-------|  
E|------------------------3B-|  



E|-------------------------------
B|-------------------------------
G|-2--2--2--2--2--2--2--2--------
D|-2--2--2--2--2--2--2--2--------
A|-0-----------------------3--0--
E|-------------------------------

E|-----------------------------------|  
B|-----------------------------------|  
G|------2--2--2-----2--2--2--2--2--2-|  
D|---2--2--2--2--2--2--2--2--2--2--2-|  
A|3--0-----------0--------------0--0-|  
E|-----------------------------------|  


  {RIFF 1}


E|--------------------------------
B|--------------------------------
G|-2--2--2----7--5---2---2--2--2--
D|-2--2--2----7--5---2---2--2--2--
A|-0--------5----3---0------------
E|--------------------------------

E|----------------------------------
B|----------------------------------
G|2---2--2----7---5---2--2--2--2--2-
D|2---2--2----7---5---2--2--2--2--2-
A|0---------5-----3---0-------------
E|----------------------------------

  Slow Ride               Take it 
Easy (Repeat Riff 1 two more times)

  {THEN RIFF 2}


E|-------------------------------
B|-------------------------------
G|----2-----2-----2--2----2---2--
D|-2--2--2--2--2--4--4----4---4--
A|-0-----0-----0-----------------
E|-------------------------------

E|----------------------------------
B|----------------------------------
G|2--2------2--2-----2--2--2--2--2--
D|4--4---2--2--2--2--2--4--4--4--4--
A|-------0--------0-----------------
E|----------------------------------

--|  
--|  
2-|  
4-|  
--|  
--|  

  I'm in the mood                   
    The Rythm is right
(repeat Riff 2 for) Move to the Music We can roll all night (then..) E|-------------------------------- B|-1---------------3-------------- G|-2---------------2-------------- D|-2---------------4----------2--- A|-0---------------0----------0--- E|-------------------------------- E|--------------------------------- B|--------------------------------- G|-2----------2-----2---------2---- D|-2-----2----2-----2----2----2---- A|-------0----------------0-------- E|--------------------------------- E|--| B|--| G|2-| D|2-| A|--| E|--| (AM) Ooh (D/A) Slow ride E|-------------------------------- B|-------------------------------- G|-----2-----2---------------2---- D|-2---2-----2---------2-----2---- A|-0-------------------0---------- E|-------------------------------- E|---------------------------------- B|-------------1-----------3-------- G|-------------2-----------2-------- D|--2----------2-----------4-------- A|--0----------0-----------0-------- E|---------------------------------- (Then back to Riff 1 two times) (AM) (D/A) THEN {RIFF 3} E|------------------------------- B|-------3--3----------3--3------ G|-2--2--2--2----2--2--2--2------ D|-2--2--4--4----2--2--4--4---2-- A|-0--0--0--0----0--0--0--0---0-- E|------------------------------- E|---------------------------------- B|---------------------------------- G|2---2--------2---2-------2----2--- D|2---2---2----2---2---2---2----2--- A|--------0------------0------------ E|---------------------------------- --| --| --| 0-| --| --| Slow down Go down Got to get your loving one more time E|-------------------------------- B|---------3----3----------3--3--- G|-2---2---2----2----2--2--2--2--- D|-2---2---4----4----2--2--4--4--- A|-0---0---0----0----0--0--0--0--- E|-------------------------------- E|---------------------------------| B|---------------------------------| G|---------------------------------| D|5---3-----------------------2~~~-| A|--------5---3---5s---10---0~~~~--| E|---------------------------8-----| Hold me Roll me Slow ridin' woman you're so fine (then) E|-5s3s5~~--------------------- B|--------5s3s5~--------5------ G|---------------6s4s6~----6b-- D|----------------------------- A|----------------------------- E|----------------------------- E|----5s3s5~~------------------------| B|------------5s3s5~--------5--------| G|-------------------6s4s6~----6b----| D|7~~------------------------------7-| A|-----------------------------------| E|-----------------------------------| (Then) E|----------------5--------------- B|-------------------------------- G|----6--7--8--9~---7br-6b-------- D|-7-----------------------7~---7- A|-------------------------------- E|-------------------------------- E|-------------10--8--10b--8-----| B|----------10----------------10-| G|6-7-8-9~-----------------------| D|-------------------------------| A|-------------------------------| E|-------------------------------| (Then Riff 1 two times) Slow Ride Take it easy (Then Riff 3) Slow down Go down got to get your loving one more time (Then Riff 4) Hold me Roll me Slow ridin' woman you're so fine (Here's a part after Got to get your loving one more time) E|-17-------17--------17-------- B|-----17--------17-------17---- G|------------------------------ D|------------------------------ A|------------------------------ E|------------------------------ E|17----------17s21---17-------------| B|------17------------------17---15--| G|-----------------------------------| D|-----------------------------------| A|-----------------------------------| E|-----------------------------------|
Composición: Dave PeverettColaboración y revisión: Eliakin sá

Utilizamos cookies e outras tecnologias semelhantes para melhorar e personalizar sua experiência de uso. Ao navegar nos produtos, você concorda com as condições descritas em nossa Política de Privacidade.