A5
13
57XXXX
Am
123
X02210
C
123
X32010
E5
1
02XXXX
E7/G#
1234
4X243X
F
234
133211
G#5
13
46XXXX
G4
134
3X0013
Tono: G
Groove Intro e Refrão:

Parte 1

#1t1##1t2#E|----------------------------------------------------|
B|-------------1--------------------------------------|
G|-2-2p1-2-2p1---2p1-2p1------------------------------|
D|-----------------------3----------------------------|
A|-0-----x-0---------x--------------------------------|
E|-------x-----------x--------------------------------|#/1t2##/1t1#

Parte 2

#2t1##2t2#E|----------------------------------------------------|
B|-------------1--------------------------------------|
G|-2-2p1-2-2p1---2p1-2--------------------------------|
D|----------------------------------------------------|
A|-0-----x-0---------x--------------------------------|
E|-------x-----------x--------------------------------|#/2t2##/2t1#

Parte 3

#3t1##3t2#E|----------------------------------------------------|
B|----------------------------------------------------|
G|----------------------------------------------------|
D|---2-2-1h2-3--2-2-1---------------------------------|
A|-------x----------x-3-2-----------------------------|
E|-0-----x---0------x---------------------------------|#/3t2##/3t1#

Parte 4

#4t1##4t2#E|----------------------------------------------------|
B|----------------------------------------------------|
G|---2p1-2-2p1-2p1------------------------------------|
D|-----------------3-2--------------------------------|
A|-------x-----------x--------------------------------|
E|-0-----x-0---------x--------------------------------|#/4t2##/4t1#

Refrão:

Give it to me, I'm worth it
Baby I'm worth it
Uh huh, I'm worth it
Gimme, gimme I'm worth it

Give it to me, I'm worth it
Baby I'm worth it
Uh huh, I'm worth it
Gimme, gimme I'm worth it

Primeira Parte:

      A5
Okay,    I tell her bring it back

Like she left something?

Bring it bring it back 

Like she left something?
E5
   In the club with the lights off
                         G#5
What you actin' shy for?

                       A5
Come and show me that you're

Wit it, wit it, wit it, wit it

Stop playing now you know that I'm
E5
   Wit it, wit it, wit it 
               G#5
Wit it, wit it

What you actin' shy for?

A5
   Just gimme you, just gimme you

Just gimme you, that's all I wanna do
E5
   And if what they say is true
                                  G#5
If it's true, I won't get mad at you
A5
   I may talk a lot of stuff

Guaranteed, I can back it up
E5
   I think I'mma call your bluff

Hurry up, I'm walkin' out front

Pré-refrão:

F
  Uh huh see me in the spot like
 C
'Ooh I love your style
Am
   Uh huh show me what you got

    G4
Cuz I don't wanna waste my time

F
  Uh huh see me in the spot like
 C
'Ooh I love your style?
Am
   Uh huh show me what you got
     E7/G#
Now come and make it worth my while

Refrão:

Give it to me, I'm worth it
Baby I'm worth it
Uh huh I'm worth it
Gimme gimme I'm worth it

Give it to me, I'm worth it
Baby I'm worth it
Uh huh I'm worth it
Gimme gimme I'm worth it

Segunda Parte:

A5
   It's all on you, it's all on you

It's all on you, so what you wanna do?
E5
   And if you don't have a clue
                                   G#5
Not a clue, I'll tell you what to do

A5
   Come harder just because

I don't like it, like it too soft
E5
   I like it a little rough
                               G#5
Not too much, but maybe just enough

Pré-refrão:

F
  Uh huh see me in the spot like
 C
'Ooh I love your style
Am
   Uh huh show me what you got
    G4
Cuz I don't wanna waste my time

F
  Uh huh see me in the spot like
 C
'Ooh I love your style?
Am
   Uh huh show me what you got
     E7/G#
Now come and make it worth my while

Refrão:

Give it to me, I'm worth it
Baby I'm worth it
Uh huh I'm worth it
Gimme gimme I'm worth it

Give it to me, I'm worth it
Baby I'm worth it
Uh huh I'm worth it
Gimme gimme I'm worth it

Primeira Parte:

      A5
Okay,    I tell her bring it back

Like she left something?

Bring it bring it back 

Like she left something?
E5
   In the club with the lights off
                         G#5
What you actin' shy for?

                       A5
Come and show me that you're

Wit it, wit it, wit it, wit it

Stop playing now you know that I'm
E5
   Wit it, wit it, wit it 
               G#5
Wit it, wit it

What you actin' shy for?

Pré-refrão:

F
  Uh huh see me in the spot like
 C
'Ooh I love your style
Am
   Uh huh show me what you got

    G4
Cuz I don't wanna waste my time

F
  Uh huh see me in the spot like
 C
'Ooh I love your style?
Am
   Uh huh show me what you got
     E7/G#
Now come and make it worth my while

Refrão:

Give it to me, I'm worth it
Baby I'm worth it
Uh huh I'm worth it
Gimme gimme I'm worth it

Give it to me, I'm worth it
Baby I'm worth it
Uh huh I'm worth it
Gimme gimme I'm worth it

Give it to me, I'm worth it
Composición: Mikkel S. Eriksen / Ori Kaplan / Priscilla Renea / Tor Erik HermansenColaboración y revisión: Leandro SandimJasmim Ferreira
videoclase Worth It (aula de violão completa)