Loosing My Ground

Fergie

Tono: G

Tabbed by:jammygriel 17

Email:*
:> for any comments please email me, thanx!

#1t1#Intro:
#1t2#e|--------6---------|--------6------|----------6-----|---------------------|
B|-8---8-8-----8----|-7---7-7----7--|-6---6-6----6---|-5----5-5-6-7--------|
G|---7----------7---|---7---------7-|---7----------7-|---7---7-------------|
D|------------------|---------------|----------------|---------------------|
A|------------------|---------------|----------------|---------------------|
E|------------------|---------------|----------------|---------------------|#/1t2##/1t1#
just REPEAT for verse and chorus:


GUITAR ADLIB:
               ~                  ~
#2t1##2t2#e|-3/5-5-5/6-6-6--|-6/8-8-8/10-10-10--|--10\8-8-8\6-6-6-|-10-8-6-5-3-------|
B|----------------|-------------------|-----------------|------------------|
G|----------------|-------------------|-----------------|------------------|
D|----------------|-------------------|-----------------|------------------|
A|----------------|-------------------|-----------------|------------------|
E|----------------|-------------------|-----------------|------------------|#/2t2##/2t1#


2nd adlib:

#3t1##3t2#e|-10\8-8-8/10-10-10--|--10\8-8-8\6-6-6--|--3/5-5-5\3-3-3--|-10-8-6-5-3----|
B|--------------------|------------------|-----------------|---------------|
G|--------------------|------------------|-----------------|---------------|
D|--------------------|------------------|-----------------|---------------|
A|--------------------|------------------|-----------------|---------------|
E|--------------------|------------------|-----------------|---------------|#/3t2##/3t1#

3rd adlib:

#4t1##4t2#e|-3--3--3--3--3----|-5--5--5--5--5----|-6--6--6--6--6---|--3----3---------|
B|---3--3--3--3--3--|---7--7--7--7--7--|---8--8--8--8----|---3----3--------|
G|--3--3--3--3--3---|--7--7--7--7--7---|--7--7--7--7--7--|-3--3----3-------|
D|------------------|------------------|-----------------|-----------------|
A|------------------|------------------|-----------------|-----------------|
E|------------------|------------------|-----------------|-----------------|#/4t2##/4t1#


http://*
Composición: Renee Sandstrom / Robb Boldt / Stacy Ferguson / Stefanie RidelColaboración y revisión: