Beautiful Dangerous

Fergie

Tono: G
#1t1#(repete 5x)
#1t2#-----------------------------------|
-----------------------------------|
-----------------------------------|
--4--5-----------------------------|
--4--5-----------------------------|
--2--3-----------------------------|#/1t2##/1t1#

#2t1#(verso) (0:13)
#2t2#------------------------------------------------------|
------------------------------------------------------|
------------2--4--------------------------------------|
--4---------2--4-------------------- Repeat till 0:32-|
--4-(x7)----0--2--------------------------------------|
--2---------------------------------------------------|#/2t2##/2t1#

#3t1#(0:32)
#3t2#-----------------------------------|
-----------------------------------|
-------------------------------2-4-|
-2-4---4~/0--2-4-----2-4--4~/0-2-4-| (repete)
-2-4---------2-4-----2-4-------0-2-|
-0-2---------0-2-----0-2-----------|#/3t2##/3t1#

#4t1#(refrão)
#4t2#----------------------------------------|
----------------------------------------|
---7--6---------------------------------|
---7--7----7/9--5-------7/9--5----------| (repete)
---5--4----7/9--5-------7/9--5----------|
-----------5/7--3-------5/7--3----------|#/4t2##/4t1#

#5t1##5t2#------------------------------------|
------------------------------------|
--7--2--4~--------------------------|
--7--2--4~--------------------------|
--5--0--2~--------------------------|
------------------------------------|#/5t2##/5t1#

#6t1#(lick tocado pela guitarra solo durante o refrão e no outro)
#6t2#-------------------------------------------------------------------------------------|
-----------------10~~-----------------------------------------------------10b12--9-9-|
--(9)11--11p9------------11p9-7/6-7p6---9~---7p6------------------------9------------|
--------------11----------------------9------------9-8~--8h9-----7-------------------|
--------------------------------------------------------------9----------------------|
-------------------------------------------------------------------------------------|#/6t2##/6t1#

#7t1##7t2#--------------------------------|
------10b12--9--9h10-----8~~----|
--9--------------------9--------|
--------------------------------|
--------------------------------|
--------------------------------|#/7t2##/7t1#

#8t1#(1:40)
#8t2#--------------------------------------------|
--------------------------------------------|
---------------------------------------2-4--|
-2-4---4~/0--2-4--4~/0--2-4--4~/0--2-4-2-4--|
-2-4---------2-4--------2-4--------2-4-0-2--|
-0-2---------0-2--------0-2--------0-2------|#/8t2##/8t1#

#9t1#(1:50)
#9t2#-----------------------------------|
-----------------------------------|
-------------------------------2-4-|
-2-4---4~/0--2-4-----2-4--4~/0-2-4-| (repete)
-2-4---------2-4-----2-4-------0-2-|
-0-2---------0-2-----0-2-----------|#/9t2##/9t1#

#10t1#(refrão)
#10t2#----------------------------------------|
----------------------------------------|
---7--6---------------------------------|
---7--7----7/9--5-------7/9--5----------| (repete)
---5--4----7/9--5-------7/9--5----------|
-----------5/7--3-------5/7--3----------|#/10t2##/10t1#

#11t1##11t2#-----------------------------------|
-----------------------------------|
--7--2--4~-------------------------|
--7--2--4~-------------------------|
--5--0--2~-------------------------|
-----------------------------------|#/11t2##/11t1#

(solo)

#12t1#(refrão / outro)
#12t2#----------------------------------------|
----------------------------------------|
---7--6---------------------------------|
---7--7----7/9--5-------7/9--5----------| (repete)
---5--4----7/9--5-------7/9--5----------|
-----------5/7--3-------5/7--3----------|#/12t2##/12t1#

#13t1##13t2#-----------------------------------|
-----------------------------------|
--7--2--4~-------------------------|
--7--2--4~-------------------------|
--5--0--2~-------------------------|
-----------------------------------|#/13t2##/13t1#

#14t1#(outro)
#14t2#-------------------------------------------------------------------------------------|
-----------------10~~-----------------------------------------------------10b12--9-9-|
--(9)11--11p9------------11p9-7/6-7p6---9~---7p6------------------------9------------|
--------------11----------------------9------------9-8~--8h9-----7-------------------|
--------------------------------------------------------------9----------------------|
-------------------------------------------------------------------------------------|#/14t2##/14t1#
Composición: Colaboración y revisión: Jefferson Sousa