A
123
X02220
A7
12
X02020
Bm
234
X24432
Bm/E
1234
XX2432
C#
234
X46664
C#7/11
34
X46474
D
123
XX0232
D11
123
XX0233
E
123
022100
E/F#
1234
XX4454
Em
12
022000
Em9
13
024000
F#
234
244322
G
123
320003
G/F#
1234
XX4433
G6
1234
3X243X
G6/A
X00000
Tono: D
INTRO

          Bm/E                     

 Bm/E                       A


-------2---------------|--2-------
---------------3-------|-----3----
-----------------------|----------
-------4----------4----|--------4-
-----------------------|----------
--0---------0----------|--0-------

-|-2-----------0--|-------0---------
-|-------3--------|---------------2-
-|----------------|-----------------
-|----------4-----|-------2---------
-|----------------|--0---------0----
-|----0-----------|-----------------

-|------| 
-|------| 
-|------| 
-|-2----| 
-|------| 
-|------| 


           A                       

 Em9                      D11


--0--------0-------------|-------
-----2-----------2-------|-------
-------------------------|-------
--------2-----------4----|-------
--0-----------0----------|--2----
-------------------------|-------

-|----------------|-----------------
-|3---------------|--3--------3-----
-|--------0-------|-----0-----------
-|4----------4----|--------4--------
-|-----2----------|--0-----------0--
-|----------------|-----------------

--------| 
--------| 
0-------| 
---0----| 
--------| 
--------| 



           G6                      

G6/F#                     Bm/E


-----------------------|----------
-------3---------------|--3-------
---------------0-------|-----0----
-------0----------0----|--------0-
-----------------------|----------
--3---------3----------|--3-------

-|----------------|-------0h---2----
-|-3-----------3--|---------------3-
-|-------0--------|-----------------
-|----------0-----|-------4---------
-|----------------|-----------------
-|----2-----------|--0---------0----

-|------| 
-|------| 
-|------| 
-|-4----| 
-|------| 
-|------| 


          Bm/E                     

  A                        A


--2--------2-----------0--|-------
-----3-----------3--------|-------
--------------------------|-------
--------4-----------4-----|-------
--------------------------|--0----
--0-----------0-----------|-------

-|0---------------|--0--------0-----
-|--------2-------|-----2-----------
-|----------------|-----------------
-|2----------2----|--------2--------
-|-----0----------|--0-----------0--
-|----------------|-----------------

-|--------| 
-|2-------| 
-|--------| 
-|---4----| 
-|--------| 
-|--------| 


          Em9                      

 D11                      G6


-----------------------|----------
-------3---------------|--3-------
---------------0-------|-----0----
-------4----------4----|--------4-
--2---------2----------|--0-------
-----------------------|----------

-|---------------|------------------
-|-3-------------|-------3----------
-|-------0-------|---------------0--
-|----------0----|-------0----------
-|----0----------|------------------
-|---------------|--3---------3-----

-|-----| 
-|-----| 
-|-----| 
-|0----| 
-|-----| 
-|-----| 


           G6                      

 F#                       A


-----------------0-------|-------
--3--------3-------------|-------
-----0-------------------|-------
--------0-----------0----|-------
-------------------------|-------
--3-----------3----------|--2----

-|2---------------|--0--------0-----
-|--------2-------|-----2-----------
-|----------------|-----------------
-|4----------4----|--------2--------
-|----------------|--0-----------0--
-|-----2----------|-----------------

--------| 
2-------| 
--------| 
---0----| 
--------| 
--------| 


            G                      

 D                    E         E


-------3-------------0h-|--2----2-
---------------3--------|---------
------------------------|---------
-------0----------0-----|-------0-
------------------------|--0------
--3---------3-----------|---------

-|------------0--|-------0---------
-|------3--------|-------0---------
-|---------------|-------1---------
-|---------0-----|-------2---------
-|---0-----------|-------2---------
-|---------------|--0----0----0----

-|0----| 
-|0----| 
-|1----| 
-|2----| 
-|2----| 
-|0----| 


(from here on, strum the chords in a
 way that sounds like finger-picking
 just like
does it ;)

       E        E/F#          G  

       G            G         A


-------0---------0----|-------3---
-------0---------0----|-------0---
-------1---------1----|-------0---
-------2---------2----|-------0---
-------2---------x----|-------2---
--0----0----2----2----|--3----3---

-|------3----|-------3---------0----
-|------0----|-------0---------2----
-|------0----|-------0---------2----
-|------0----|-------0---------2----
-|------2----|-------2----0----0----
-|-3----3----|--3----3--------------



       G         G                

                  Bm        Bm


-------3---------3----|-----------
-------0---------0----|-------0---
-------0---------0----|-------0---
-------0---------0----|--4--------
-------2---------2----|-----------
--3----3----3----3----|-----------

-|-----------|-------2---------2----
-|-----------|-------3---------3----
-|-----------|-------4---------4----
-|-2----0----|-------4---------4----
-|-----------|--2---------2---------
-|-----------|----------------------



       A       G6/A           G  

       G            G         A


-------0--------------|-------3---
-------2---------0----|-------0---
-------2---------0----|-------0---
-------2---------0----|-------0---
--0---------0---------|-------2---
----------------------|--3----3---

-|------3----|-------3---------0----
-|------0----|-------0---------2----
-|------0----|-------0---------2----
-|------0----|-------0---------2----
-|------2----|-------2----0----0----
-|-3----3----|--3----3--------------



       G         G            G  

      G/F#         Em        Em


-------3---------3----|-------3---
-------0---------0----|-------0---
-------0---------0----|-------0---
-------0---------0----|-------0---
-------2---------2----|-------2---
--3----3----3----3----|--3----3---

-|------3----|-------0---------0----
-|------0----|-------0---------0----
-|------0----|-------0---------0----
-|------0----|-------2---------2----
-|------2----|-------2---------2----
-|-2----2----|--0----0----0----0----




VERSE


      Em        Em            A7 

      A7           A7        A7


-------0---------0----|-------0---
-------0---------0----|-------2---
-------0---------0----|-------0---
-------2---------2----|-------2---
-------2---------2----|--0----0---
--0----0----0----0----|-----------

-|------0----|-------0---------0----
-|------2----|-------2---------2----
-|------0----|-------0---------0----
-|------2----|-------2---------2----
-|-0----0----|--0----0----0----0----
-|-----------|----------------------



1. someone's always coming around 
here
2. picking up the ticket shows 
there's
3. i could make you satisfied in

      Em9       Em9          D11 

     G6/A           G6        G6


-------0---------0----|-------0---
-------3---------3----|-------3---
-------0---------0----|-------0---
-------4---------4----|-------4---
--2----2----2----2----|--0----0---
----------------------|-----------

-|------0----|-------0---------0----
-|------0----|-------3---------3----
-|------0----|-------0---------0----
-|------0----|-------0---------0----
-|-0----0----|-------2---------2----
-|-----------|--3----3----3----3----



1. trailing some new kill
2. money to be made 3. everything you do G6 G6 Em9 Em9 -------0---------0----|-------0--- -------3---------3----|-------3--- -------0---------0----|-------0--- -------0---------0----|-------4--- -------2---------2----|-------2--- --3----3----2----2----|--0-------- -|------0----| -|------3----| -|------0----| -|------4----| -|-2----2----| -|-----------| Em9 Em9 A7 A7 A7 A7 -------0---------0----|-------0--- -------3---------3----|-------2--- -------0---------0----|-------0--- -------4---------4----|-------2--- --2----2----2----2----|--0----0--- ----------------------|----------- -|------0----|-------0---------0---- -|------2----|-------2---------2---- -|------0----|-------0---------0---- -|------2----|-------2---------2---- -|-0----0----|--0----0----0----0---- -|-----------|---------------------- 1. says i've seen your picture on a 2. go on and lose the gamble, that's the 3. all your 'secret wishes' could right Em9 Em9 D11 G6/A G6 G6 -------0---------0----|-------0--- -------3---------3----|-------3--- -------0---------0----|-------0--- -------4---------4----|-------4--- --2----2----2----2----|--0----0--- ----------------------|----------- -|------0----|-------0---------0---- -|------0----|-------3---------3---- -|------0----|-------0---------0---- -|------0----|-------0---------0---- -|-0----0----|-------2---------2---- -|-----------|--3----3----3----3---- 1. hundred dollar bill 2. history of the trade 3. now be coming true G6 G6 G6 G6 -------0---------0----|-------0--- -------3---------3----|-------3--- -------0---------0----|-------0--- -------0---------0----|-------0--- -------2---------2----|-------2--- --3----3----3----3----|--3----3--- -|------0----| -|------3----| -|------0----| -|------0----| -|------2----| -|-3----3----| F# F# A A G G -------2---------2----|-------0--- -------2---------2----|-------2--- -------3---------3----|-------2--- -------4---------4----|-------2--- -------4---------4----|--0----0--- --2----2----2----2----|----------- -|------0----|-------3---------3---- -|------2----|-------0---------0---- -|------2----|-------0---------0---- -|------2----|-------0---------0---- -|-0----0----|-------2---------2---- -|-----------|--3----3----3----3---- 1. what's a game of chance 2. did you add up all 3. and be forever D D E E E E/F# -------2---------2----|-------0--- -------3---------3----|-------0--- -------2---------2----|-------1--- --0----0----0----0----|-------2--- ----------------------|-------2--- ----------------------|--0----0--- -|------0----|-------0---------0---- -|------0----|-------0---------0---- -|------1----|-------1---------1---- -|------2----|-------2---------2---- -|------2----|-------2---------x---- -|-0----0----|--0----0----2----2---- 1. to you, to him is one 2. the cards left to play 3. with my poison arms G G G A G G -------3---------3----|-------3--- -------0---------0----|-------0--- -------0---------0----|-------0--- -------0---------0----|-------0--- -------2---------2----|-------2--- --3----3----3----3----|--3----3--- -|------0----|-------3---------3---- -|------2----|-------0---------0---- -|------2----|-------0---------0---- -|------2----|-------0---------0---- -|-0----0----|-------2---------2---- -|-----------|--3----3----3----3---- 1. of real skill 2. to zero 3. around you Bm Bm A G6/A ----------------------|-------2--- -------0--------------|-------3--- -------0--------------|-------4--- --4---------2----0----|-------4--- ----------------------|--2-------- ----------------------|----------- -|------2----|-------0---------0---- -|------3----|-------2---------0---- -|------4----|-------2---------0---- -|------4----|-------2---------0---- -|-2---------|--0---------0--------- -|-----------|---------------------- 1. so glad to meet you angeles 2. and sign up with evil angeles 3. no one's gonna fool around with us G G G A G G -------3---------3----|-------3--- -------0---------0----|-------0--- -------0---------0----|-------0--- -------0---------0----|-------0--- -------2---------2----|-------2--- --3----3----3----3----|--3----3--- -|------0----|-------3---------3---- -|------2----|-------0---------0---- -|------2----|-------0---------0---- -|------2----|-------0---------0---- -|-0----0----|-------2---------2---- -|-----------|--3----3----3----3---- BRIDGE G G F# F# C#7/11 -------3---------3----|-------2--- -------0---------0----|-------2--- -------0---------0----|-------3--- -------0---------0----|-------4--- -------2---------2----|-------4--- --3----3----3----3----|--2----2--- -|------2----|-------2---------2---- -|------2----|-------2---------2---- -|------3----|-------3---------3---- -|------4----|-------4---------4---- -|------4----|-------2---------2---- -|-2----2----|--4----4----4----4---- don't start me A A C# C# F# F# -------0---------0----|-------4--- -------2---------2----|-------6--- -------2---------2----|-------6--- -------2---------2----|-------6--- --0----0----0----0----|--4----4--- ----------------------|----------- -|------4----|-------2---------2---- -|------6----|-------2---------2---- -|------6----|-------3---------3---- -|------6----|-------4---------4---- -|-4----4----|-------4---------4---- -|-----------|--2----2----2----2---- trying now A A G G D D -------0---------0----|-------3--- -------2---------2----|-------0--- -------2---------2----|-------0--- -------2---------2----|-------0--- --0----0----0----0----|-------2--- ----------------------|--3----3--- -|------3----|-------2---------2---- -|------0----|-------3---------3---- -|------0----|-------2---------2---- -|------0----|--0----0----0----0---- -|------2----|---------------------- -|-3----3----|---------------------- E E E E/F# G G -------0---------0----|-------0--- -------0---------0----|-------0--- -------1---------1----|-------1--- -------2---------2----|-------2--- -------2---------2----|-------2--- --0----0----0----0----|--0----0--- -|------0----|-------3---------3---- -|------0----|-------0---------0---- -|------1----|-------0---------0---- -|------2----|-------0---------0---- -|------x----|-------2---------2---- -|-2----2----|--3----3----3----3---- G A G G -------3---------0----|-------3--- -------0---------2----|-------0--- -------0---------2----|-------0--- -------0---------2----|-------0--- -------2----0----0----|-------2--- --3----3--------------|--3----3--- -|------3----|---------------------- -|------0----|-------0-------------- -|------0----|-------0-------------- -|------0----|--4---------2----0---- -|------2----|---------------------- -|-3----3----|---------------------- Bm Bm A G6/A G G -------2---------2----|-------0--- -------3---------3----|-------2--- -------4---------4----|-------2--- -------4---------4----|-------2--- --2---------2---------|--0-------- ----------------------|----------- -|------0----|-------3---------3---- -|------0----|-------0---------0---- -|------0----|-------0---------0---- -|------0----|-------0---------0---- -|-0---------|-------2---------2---- -|-----------|--3----3----3----3---- FINALE Bm Bm A G6/A ----------------------|-------2--- -------0--------------|-------3--- -------0--------------|-------4--- --4---------2----0----|-------4--- ----------------------|--2-------- ----------------------|----------- -|------2----|-------0---------0---- -|------3----|-------2---------0---- -|------4----|-------2---------0---- -|------4----|-------2---------0---- -|-2---------|--0---------0--------- -|-----------|---------------------- no one's gonna fool around with us G G Bm Bm -------3---------3----|----------- -------0---------0----|-------0--- -------0---------0----|-------0--- -------0---------0----|--4-------- -------2---------2----|----------- --3----3----3----3----|----------- -|-----------|-------2---------2---- -|-----------|-------3---------3---- -|-----------|-------4---------4---- -|-2----0----|-------4---------4---- -|-----------|--2---------2--------- -|-----------|---------------------- so glad to meet you A G6/A G G G A -------0---------0----|-------3--- -------2---------0----|-------0--- -------2---------0----|-------0--- -------2---------0----|-------0--- --0---------0---------|-------2--- ----------------------|--3----3--- -|------3----|-------3---------0---- -|------0----|-------0---------2---- -|------0----|-------0---------2---- -|------0----|-------0---------2---- -|------2----|-------2----0----0---- -|-3----3----|--3----3-------------- angeles G G G A G G -------3---------3----|-------3--- -------0---------0----|-------0--- -------0---------0----|-------0--- -------0---------0----|-------0--- -------2---------2----|-------2--- --3----3----3----3----|--3----3--- -|------0----|-------3---------3---- -|------2----|-------0---------0---- -|------2----|-------0---------0---- -|------2----|-------0---------0---- -|-0----0----|-------2---------2---- -|-----------|--3----3----3----3---- G A G -------3---------0----|--3-------- -------0---------2----|--0-------- -------0---------2----|--0-------- -------0---------2----|--0-------- -------2----0----0----|--2-------- --3----3--------------|--3--------
Composición: Elliott SmithColaboración y revisión: lais baptista

Utilizamos cookies para personalizar sua experiência. Ao acessar o site, você concorda com a nossa Política de Privacidade.