Adrenalin

Eisbrecher

Tono: G
~ = Let ring
x = Mute note
P.M =  Palm mute


Intro - Verse

E|-------------------------------
B|-------------------------------
G|-------------------------------
D|1---4-1-1-4-1---4-6-6----1---1-
A|1---4-1-1-4-1---4-6-6----1---1-
D|1---4-1-1-4-1---4-6-6----1---1-

E|-----------------|               
B|-----------------|               
G|-----------------|               
D|4-1-4-1---4-7-6--|               
A|4-1-4-1---4-7-6--|               
D|4-1-4-1---4-7-6--| first x2 with 

                    
                    
                    
                    
                    
effects and then 3x 

distortion


Pre-chorus

E|--------------------------------
B|--------------------------------
G|--------------------------------
D|3---6-3-3-6-3---6-6-6-6---3---6-
A|3---6-3-3-6-3---6-6-6-6---3---6-
D|3---6-3-3-6-3---6-6-6-6---3---6-

E|-------------------| 
B|-------------------| 
G|-------------------| 
D|3-3-6-3--3--3-1-1-2| 
A|3-3-6-3--3--3-1-1-2| 
D|3-3-6-3--3--3-1-1-2| 



E|--------------------------------
B|--------------------------------
G|--------------------------------
D|3---6-3-3-6-3---6-6-6-6-5-5-5-5-
A|3---6-3-3-6-3---6-6-6-6-5-5-5-5-
D|3---6-3-3-6-3---6-6-6-6-5-5-5-5-

E|-----------------------| 
B|-----------------------| 
G|-----------------------| 
D|5-5-5-5-6-6-6-6-6-6-6-6| 
A|5-5-5-5-6-6-6-6-6-6-6-6| 
D|5-5-5-5-6-6-6-6-6-6-6-6| 



Chorus (I put it this way to give you an idea you can figure out the strumming very easily)

E|--------------------------------
B|--------------------------------
G|--------------------------------
D|-5--5--5-5-5--6--6-6-6--8-8-8---
A|-5--5--5-5-5--6--6-6-6--8-8-8---
D|-5--5--5-5-5--6--6-6-6--8-8-8---


E|-------------------------------- B|-------------------------------- G|-------------------------------- D|-5--5--5-5-5--6--6-6-6--3-3-3--- A|-5--5--5-5-5--6--6-6-6--3-3-3--- D|-5--5--5-5-5--6--6-6-6--3-3-3--- E|-------------------------------- B|-------------------------------- G|-------------------------------- D|-5--5--5-5-5--6--6-6-6--8-8-8--- A|-5--5--5-5-5--6--6-6-6--8-8-8--- D|-5--5--5-5-5--6--6-6-6--8-8-8--- E|------------------------------- B|------------------------------- G|------------------------------- D|-4--4--4-4-4--2--2-2-2--3-3-3-- A|-4--4--4-4-4--2--2-2-2--3-3-3-- D|-4--4--4-4-4--2--2-2-2--3-3-3-- |--I have a little doubt with E|----------------| B|----------------| G|----------------| D|----------------| A|----------------| D|----------------| X2 this part--| Verse Pre Chorus Chorus Bridge E|------------------------------- B|------------------------------- G|------------------------------- D|6~-5~-6~-5~--6-6--6-6--6--5-5-- A|6~-5~-6~-5~--6-6--6-6--6--5-5-- D|6~-5~-6~-5~--6-6--6-6--6--5-5-- E|----------------| B|----------------| G|----------------| D|5-5--5----------| A|5-5--5----------| D|5-5--5----------| E|------------------------------- B|------------------------------- G|------------------7-7-7-8-8---- D|6-6--6-6--6--5-5--x-x-x-x-x--5- A|6-6--6-6--6--5-5--5-5-5-6-6--5- D|6-6--6-6--6--5-5-------------5- E|----------------| B|----------------| G|---7-7-7-5-5----| D|5--x-x-x-x-x----| A|5--5-5-5-3-3----| D|5---------------| E|------------------------------- B|------------------------------- G|------------------------------- D|6-6--6-6--6--5-5--5-5--5--6-6-- A|6-6--6-6--6--5-5--5-5--5--6-6-- D|6-6--6-6--6--5-5--5-5--5--6-6-- E|----------------| B|----------------| G|----------------| D|6-6--6----------| A|6-6--6----------| D|6-6--6----------| E|-------------------------------- B|-------------------------------- G|-------------------------------- D|5-5-5-5-5-5-5-5-5-5-5-5-5-5-5-5- A|5-5-5-5-5-5-5-5-5-5-5-5-5-5-5-5- D|5-5-5-5-5-5-5-5-5-5-5-5-5-5-5-5- E|---------------| B|---------------| G|---------------| D|---------------| A|---------------| D|---------------| P.M Solo: Chorus Then the chorus again END
Composición: Colaboración y revisión: Fernando

Utilizamos cookies para personalizar sua experiência. Ao acessar o site, você concorda com a nossa Política de Privacidade.