Los Bandoleros Intro

Don Omar

Tono: G
Tabbed by: Jovanny
Email: *

Tuning: Standard


e|-----------2-----1-3-3-3h4p3----
B|-2h3p2---2-------------------1--
G|-------0------------------------
D|--------------------------------
A|--------------------------------
E|--------------------------------

e|-----------1-3-3/10-11------------
B|-----1-3-4-------------8-8--------
G|---0------------------------------
D|----------------------------------
A|----------------------------------
E|----------------------------------



e|--------------------------------
B|-8-6-6-----6-----8h9p8-6---6----
G|-------8-8---------------8----8-
D|--------------------------------
A|--------------------------------
E|--------------------------------

e|----------------------"---"-------
B|----------------------"---"-------
G|*-*-7-*-*-8--8-*-*-7--"*1*"-*-*-8-
D|----------------------"---"-------
A|----------------------"---"-------
E|----------------------"---"-------



e|-------------------------"---"-
B|-9-*-*-8-*-*-9--9-*-*-8--"---"-
G|-------------------------"*2*"-
D|-------------------------"---"-
A|-------------------------"---"-
E|-------------------------"---"-

e|--------------------------------
B|*-*-9---------------------------
G|--------8-*-*-7-*-*-8--8-*-*-7--
D|--------------------------------
A|--------------------------------
E|--------------------------------

"---"-------| 
"---"-------| 
"*3*"-*-*-8-| 
"---"-------| 
"---"-------| 
"---"-------| 


e|-------------------------"---"- B|-9-*-*-8-*-*-9--9-*-*-8--"---"- G|-------------------------"*4*"- D|-------------------------"---"- A|-------------------------"---"- E|-------------------------"---"- e|-------------------------------------------| B|*-*-9--------------------------------------| G|-------------------------------------------| D|-------------------------------------------| A|-------------------------------------------| E|-------------------------------------------| Insert *1* (Guitar 2) e|-"----11-10-8-"----------------- B|-"--8---------"----------------- G|-"------------"----------------- D|-"------------"----------------- A|-"------------"----------------- E|-"------------"----------------- Insert *2* e|-"-10-10-10-11-10---"----------- B|-"----------------8-"----------- G|-"------------------"----------- D|-"------------------"----------- A|-"------------------"----------- E|-"------------------"----------- Insert *3* e|-"---11-10-8-"------------------ B|-"-8---------"------------------ G|-"-----------"------------------ D|-"-----------"------------------ A|-"-----------"------------------ E|-"-----------"------------------ Insert *4* e|-"-8h10p8------------------"---- B|-"--------10-8h10p8--------"---- G|-"------------------10-8~~-"---- D|-"-------------------------"---- A|-"-------------------------"---- E|-"-------------------------"---- | / slide up | \ slide down | h hammer-on | p pull-off | ~ vibrato | + harmonic | x Mute note ============================================================================
Composición: Colaboración y revisión: