Quando o Sol Se For

Detonautas

A5
12
X022XX
B5
134
X244XX
D
123
XX0232
D5
134
X577XX
G
123
320003
G5
134
355XXX
Tono: G
[Intro]

[Guitarra 1]

#1t1##1t2#E|-22222-22222-------------|
B|-33333-33333-------------|
G|-44444-22222-------------|
D|-44444-44444-------------|
A|-22222-22222-------------|
E|-------------------------|  #/1t2##/1t1#

[Guitarra 2]

#2t1##2t2#E|-------------------------|
B|-------------------------|
G|-4----7------------------|
D|-4----7------------------|
A|-2----5------------------|
E|-------------------------|  #/2t2##/2t1#

[Solo]

#3t1#    A5         G5           B5         D5
#3t2#E|--------------------------7-7-7-7-7-10-10-10-10-10-----|
B|-10-10-10-10-10-8-8-8-8-8-7-7-7-7-7-10-10-10-10-10-----|
G|--9--9--9--9--9-7-7-7-7-7------------------------------|
D|-------------------------------------------------------|
A|-------------------------------------------------------|
E|-------------------------------------------------------|#/3t2##/3t1#

[Riff]

#4t1##4t2#E|-9--9--9--10--9----9--9--9--9--10--9----9--9--9--9--10--9----9--12--12--12--12--12-|
B|10-10-10--10-10---10-10-10-10--10-10---10-10-10-10--10-10---10--10--10--10--10--10-|
G|-----------------------------------------------------------------------------------|
D|-----------------------------------------------------------------------------------|
A|-----------------------------------------------------------------------------------|
E|-----------------------------------------------------------------------------------|#/4t2##/4t1#

 A5           G5
Penso no que faço
        B5               D5
No que fiz e no que vou fazer
 A5            G5
Hoje o seu retrato
       B5               D5
Só me mostra o que eu quero esquecer

[Refrão]

#5t1##5t2#E|-------0------------0------------0-------------0--------|
B|-----1---1--------1---1--------1---1---------1---1------|
G|---2-------2----2-------2----2-------2-----2-------2----|
D|--------------------------------------------------------|
A|-0------------------------2-------------0---------------|
E|--------------3-----------------------------------------|#/5t2##/5t1#

  A5             G5           B5         D
Quando o sol se for meu amor vou onde você for
  A5             G5          B5           D5
Quando o sol se for a luz indicará você pra mim

[Solo]  A5  G5  B5  D5

 A5            G5
Passo o tempo todo
      B5          D5
Tudo passa passa solução
 A5               G5
Sempre saio a noite
         B5               D5
A noite sempre deixa a sensação

#6t1##6t2#E|--------------------------|
B|--7-----------------------|
G|-----9-7-6-7-6------------|
D|--------------------------|
A|--------------------------|
E|--------------------------|#/6t2##/6t1#

B5                      D5
    E eu fico a te esperar
B5                                D5
    Abro os olhos mas não  posso ver
B5                      D5
    Não me canso de tentar
B5                     D5
    Eu não quero entender

( A5  G5  B5  D5 )

 A5           G
Penso no que faço
        B5               D5
No que fiz e no que vou fazer
 A5            G5
Hoje o seu retrato
       B5               D5
Só me mostra o que eu quero esquecer

[Solo]

#7t1##7t2#E|--------------------------------|
B|--777---------------------------|
G|------999-777-6-7-6-7-6-7-6-----|
D|--------------------------------|
A|-----------------------------7--|
E|-----------------------------5--|#/7t2##/7t1#
Composición: DJ Cleston / Fábio Brasil / Renato Rocha / Rodrigo Netto / Tico Santa CruzColaboración y revisión: Marcos PauloJoaldo arrudaricardo meloLeandroy más 8