O Dia Que Não Terminou

Detonautas

Am
123
X02210
Am9/E
123
002410
F7M/C
1234
X33210
G
123
320003
G6
123
320030
Tono: G
[Intro] Am  F7M/C  G6
        Am  F7M/C  G6

#1t1##1t2#E|---------------------------------------------------|
B|------10\8~----------------------------------------|
G|-7/9~-------9\5-2/7~-7\p0--------------------------|
D|---------------------------------------------------|
A|---------------------------------------------------|
E|---------------------------------------------------|#/1t2##/1t1#

#2t1##2t2#E|---------------------------------------------------|
B|------10\8~----------------------------------------|
G|-7/9~-------9\5-2/7~-7\p0--------------------------|
D|---------------------------------------------------|
A|---------------------------------------------------|
E|---------------------------------------------------|#/2t2##/2t1#

[Primeira Parte]

          Am               F7M/C
Me sinto tão estranho aqui
                    G6
Que mal posso me mexer irmão
         Am           F7M/C
No meio dessa confusão
                   G6
Não consigo encontrar ninguém
      Am        F7M/C     G6
Onde foi que você se meteu então?
                      F7M/C
Tô tentando te encontrar
                     Am
Tô tentando me entender
    G6
As coisas são assim

[Violão 2]

#3t1#   Am9/E
#3t2#E|-0-------------------------------------------------|
B|-5----------1---------3-------3--------------------|
G|-5------0---------0-------0------------------------|
D|-7----3---3---3/5---5---5---5----------------------|
A|-7-------------------------------------------------|
E|---------------------------------------------------|#/3t2##/3t1#
#4t1#                     G
#4t2#E|-------------------3-------------------------------|
B|-------1-------1---3-------------------------------|
G|---0-------0-------0-------------------------------|
D|-3---3---2---2-----0-------------------------------|
A|-------------------2-------------------------------|
E|-------------------3-------------------------------|#/4t2##/4t1#

[Refrão]

 Am                    F7M/C          G
Meus olhos grandes de medo revelam a solução
 Am                 F7M/C             G
Meu coração tem segredos que movem a solidão
A solidão

( Am  F7M/C  G6 )

[Violão 2] 

#5t1##5t2#E|---------------------------------------------------|
B|------10\8~----------------------------------------|
G|-7/9~-------9\5-2/7~-7\p0--------------------------|
D|---------------------------------------------------|
A|---------------------------------------------------|
E|---------------------------------------------------|#/5t2##/5t1#

          Am               F7M/C
Me sinto tão estranho aqui
                G6
Diferente de você irmão
       Am                F7M/C
A sua forma em distorção
                    G6
Não pareço com ninguém sei lá
         Am          F7M/C            G6
Pois eu sei que nós temos o mesmo destino então
                      F7M/C
Tô tentando me encontrar
                     Am
To tentando me entender
      G
Por que tá tudo assim?

#6t1##6t2#E|---------------------------------------------------|
B|---10-8-10---10-8-10---10-8-10---10-8-10---10-8-10-|
G|-9---------9---------9---------9---------9---------|
D|---------------------------------------------------|
A|---------------------------------------------------|
E|---------------------------------------------------|#/6t2##/6t1#

#7t1##7t2#E|----------------------8-8-7------------------------|
B|---10-8-10---10-8-10--------10-8-------------------|
G|-9---------9---------------------------------------|
D|---------------------------------------------------|
A|---------------------------------------------------|
E|---------------------------------------------------|#/7t2##/7t1#

[Refrão]

 Am                    F7M/C          G
Meus olhos grandes de medo revelam a solução
 Am                 F7M/C             G
Meu coração tem segredos que movem a solidão
A solidão

( Am  F7M/C  G6 ) 
( Am  F7M/C  G6 ) 

[Violão 2]

#8t1##8t2#E|---------------------------------------------------|
B|------10\8~----------------------------------------|
G|-7/9~-------9\5-2/7~-7\p0--------------------------|
D|---------------------------------------------------|
A|---------------------------------------------------|
E|---------------------------------------------------|#/8t2##/8t1#

#9t1##9t2#E|---------------------------------------------------|
B|------10\8~----------------------------------------|
G|-7/9~-------9\5-2/7~-7\p0--------------------------|
D|---------------------------------------------------|
A|---------------------------------------------------|
E|---------------------------------------------------|#/9t2##/9t1#

Am                       F7M/C
   Quem de nós vai insistir e não
Am                       F7M/C
   Se entregar sem resistir então
Am                         F7M/C
   Já não há mais pra onde ir
G                    F7M/C
  Se entregar à solidão e não

#10t1##10t2#E|---------------------------------------------------|
B|---------------------------------------------------|
G|---------------------------------------------------|
D|----------------------------------7-7-7-7-7--------|
A|-3-3-3-3-3-3-3-3-3-3-3-3/7-7-7-7--8-8-8-8-8--------|
E|-5-5-5-5-5-5-5-5-5-5-5-5/8-8-8-8-------------------|#/10t2##/10t1#

#11t1##11t2#E|-8-7-----------------------------------------------|
B|-----10-8-8h10-------------------------------------|
G|---------------7h9~--------------------------------|
D|---------------------------------------------------|
A|---------------------------------------------------|
E|---------------------------------------------------|#/11t2##/11t1#

#12t1##12t2#E|---------------------------------------------------|
B|---------------------------------------------------|
G|---------------------------------------------------|
D|----------------------------------7-7-7-7-7--------|
A|-0-0-0-0-3-3-3-3-3-3-3-3/7-7-7-7--8-8-8-8-8--------|
E|---------5-5-5-5-5-5-5-5/8-8-8-8-------------------|#/12t2##/12t1#

#13t1##13t2#E|---------------------------------------------------|
B|---------------------------------------------------|
G|---------------------------------------------------|
D|---------------------------------------------------|
A|-3-3-3-3-3-3-3-3-3-3-3-3/7-7-7-7-------------------|
E|-5-5-5-5-5-5-5-5-5-5-5-5/8-8-8-8-------------------|#/13t2##/13t1#

#14t1##14t2#E|---------------------------------------------------|
B|---------------------------------------------------|
G|---------------------------------------------------|
D|---------------------------------------------------|
A|-3-3-3-3-3-3-3-3-3-3-3-3-3-3-3-3-------------------|
E|-1-1-1-1-1-1-1-1-1-1-1-1-1-1-1-1-------------------|#/14t2##/14t1#

#15t1##15t2#E|---------------------------------------------------|
B|---------------------------------------------------|
G|---------------------------------------------------|
D|---------------------------------------------------|
A|-2-2-2-2-2-2-2-2-2-2-2-2/7-7-7-7-------------------|
E|-3-3-3-3-3-3-3-3-3-3-3-3/8-8-8-8-------------------|#/15t2##/15t1#

[Refrão]

 Am                    F7M/C          G
Meus olhos grandes de medo revelam a solução
 Am                 F7M/C             G
Meu coração tem segredos que movem a solidão
A solidão
Composición: DJ Cleston / Fábio Brasil / Renato Rocha / Rodrigo Netto / Tico Santa CruzColaboración y revisión: Gustavo CunhaArthur Caio Adeliojonathan gonçalves
videoclase O Dia Que Não Terminou (aula completa)