Tono: G
Guitar 1: Recording back up
Guitar 2: Live lead

Tabbed from Sheet Music by Andrew McShan

#1t1#(Guitar 1)
#1t2#e|-------------------------------------------------------------------------|
B|-------------------------------------------------------------------------|
G|------0-----------0-----------0-----------0-----------0-----------0------|
D|----0---0-------0---0-------0---0-------0---0-------0---0-------0---0----|
A|-1-3------3-1-3-------3-1-3-------3-1-3-------3-1-3-------3-1-3-------3-1|
E|-------------------------------------------------------------------------|#/1t2##/1t1#

#2t1##2t2#e|------------------------------------------1-------------1----------------|
B|----------------------------------------1---1-----------1----------------|
G|--------------------------------------2-------2---------2----------------|
D|-------3---------------2------------3-----------3-------3----------------|
A|-0-1-3---3-1-0----0-1----1-0------3---------------3-----3----------------|
E|----------------3------------3--1-------------------1---1----------------|#/2t2##/2t1#

#3t1##3t2#e|-----------5-------------------------------------------------------------|
B|---------6---6--------------6----------3---------------------------------|
G|-------7--------7--------7-----------4-----------------------------------|
D|----7-------------7----7-----------5-------x2----------------------------|
A|--5-----------------5------------5---------------------------------------|
E|-------------------------------3-----------------------------------------|#/3t2##/3t1#

#4t1##4t2#e|----------3-----------------------------------------1--------------------|
B|--------4---4----------4--------------------------1---1------------------|
G|------5------5-------5-----------4--------------2-------2----------------|
D|----5----------5---5-----------3------x2------3-----------3--------------|
A|--3--------------3-----------3--------------3---------------3------------|
E|---------------------------1--------------1-------------------1----------|#/4t2##/4t1#

#5t1##5t2#e|----------3----------------3--------------------------------------------|
B|--------4--4-------------4---4------------------------------------------|
G|------5------5---------5--------5---------------------------------------|
D|----5----------5-----5------------5-------------------------------------|
A|--3--------------3-3----------------3~~~~-------------------------------|
E|------------------------------------------------------------------------|#/5t2##/5t1#

#6t1##6t2#|---1--------------------6--------------------3----------------------------|
B|--1--------------------6--------------------3----------------------------|
G|--2--------------------7--------------------4----------------------------|
D|--3--------------------8--------------------5----------------------------|
A|--3--------------------8--------------------5----------------------------|
E|--1--------------------6--------------------3----------------------------|#/6t2##/6t1#

#7t1##7t2#e|----------3----------------3---------------------------------------------|
B|--------4--4-------------4---4-------------------------------------------|
G|------5------5---------5--------5----------------------------------------|
D|----5----------5-----5------------5--------------------------------------|
A|--3--------------3-3----------------3~~~~--------------------------------|
E|-------------------------------------------------------------------------|#/7t2##/7t1#

#8t1##8t2#e|-------------------------------------------------------------------------|
B|--------------------10--------------------------------9------------------|
G|--~8-------------------11----11------8------------------9---9------------|
D|-----10-----10--x4--------12-----x4-----10----10--x4------9----x4--------|
A|---------10--------------------------------10----------------------------|
E|-------------------------------------------------------------------------|#/8t2##/8t1#

#9t1##9t2#e|--5-----------5--------------5-----5-----5-----5------5-----5------------|
B|----5---5-------5---5----------------------------------------------------|
G|------5---x4------4----x4-------5-----5-----5-----5------5------5--------|
D|-------------------------------------------------------------------------|
A|-------------------------------------------------------------------------|
E|-------------------------------------------------------------------------|#/9t2##/9t1#

#10t1##10t2#e|-----------3-------------------------------------------------------------|
B|---------4---4-----------------------------------------------------------|
G|-------5-------5-------------------0----------0--------------------------|
D|-----5-----------5---------------0--0-------0---0------------------------|
A|---3---------------3-2-1-0---1-3------3-1-3-------3-1--------------------|
E|-------------------------------------------------------------------------|#/10t2##/10t1#


#11t1##11t2#|------------5-------------------------------------------------------------|
B|---------6---6--------------6----------3---------------------------------|
G|-------7--------7--------7-----------4-----------------------------------|
D|----7-------------7----7-----------5-------x2----------------------------|
A|--5-----------------5------------5---------------------------------------|
E|-------------------------------3-----------------------------------------|#/11t2##/11t1#

#12t1##12t2#e|----------6--------------------------------3~~---------------------------|
B|--------6---6-----------6-----------4------3~~---------------------------|
G|------8-------8-------8-----------5--------4~~---------------------------|
D|----8-----------8---8-----------5------x2--5~~---------------------------|
A|--6---------------6-----------3------------5~~---------------------------|
E|-------------------------------------------3~~---------------------------|#/12t2##/12t1#

#13t1##13t2#e|--15----------------13------------12-------------------------------------|
B|-----15-13-------------13-12-11------11-10----10-------------------------|
G|-----------15---x4-------------------------12----------------------------|
D|-------------------------------------------------------------------------|
A|-------------------------------------------------------------------------|
E|-------------------------------------------------------------------------|#/13t2##/13t1#

#14t1#(Guitar 2)
#14t2#e|-------------------------------------------------------------------------|
B|--8----5-6-8--5---5---5-------3-5-6--------------------------------------|
G|----7-----------7---5---7---3-------5------0---2~~~~---------------------|
D|-------------------------------------------------------------------------|
A|-------------------------------------------------------------------------|
E|-------------------------------------------------------------------------|#/14t2##/14t1#

#15t1##15t2#e|-------------------------------------------------------------------------|
B|--10------5-----------10-------5---------8-------------------------------|
G|-----9--5----7------------9--5---7---------7--3-7-5--2-0-2---2-----------|
D|----------------8--5----------------8-5--------------------3-------------|
A|----------------------------------------------------------------5--------|
E|-------------------------------------------------------------------------|#/15t2##/15t1#

#16t1##16t2#e|--8-----------------------------------------------------8-10-5-----------|
B|-----8--10--11-13--10-8--10-6-10-8--4--8-10-11-6--10-11------------------|
G|-------------------------------------------------------------------------|
D|-------------------------------------------------------------------------|
A|-------------------------------------------------------------------------|
E|-------------------------------------------------------------------------|#/16t2##/16t1#

#17t1##17t2#e|--6--10--13----------------------13------------------------------1-------|
B|------------14--------------10------14------------10-------------1-------|
G|-----------------7--9-10-10------------7-9-10-10-----10-7-10-7---2-------|
D|-----------------------------------------------------------------3-------|
A|-----------------------------------------------------------------3-------|
E|-----------------------------------------------------------------1-------|#/17t2##/17t1#

#18t1##18t2#e|-------------------------------------------------------------------------|
B|----------------------------------3--------------------------------------|
G|-----------------------7---------------------------------8-9-9-8-12-12---|
D|--10-8-7-5-7-8-10-10-13--7------------10-8-7-5-7-8-10-10-----------------|
A|---------------------------5---5--5--------------------------------------|
E|-----------------------------5-------------------------------------------|#/18t2##/18t1#

#19t1##19t2#e|----------------------------0--------------------------|
B|----------------------------0--------------------------|
G|-10-9-7-9-10-10-9-6-4-2-1---1--------------------------|
D|----------------------------2--------------------------|
A|----------------------------2--------------------------|
E|----------------------------0--------------------------|#/19t2##/19t1#

#20t1##20t2#e|------------------------------------------------------------------------|
B|--6-5-5-6-6-5--------------------1--------------------------------------|
G|--7-4-4-7-7-4-----------------------------------------------------------|
D|---------------3-2-2-3-3-5-3-2-0-----x2---------------------------------|
A|---------------5-2-2-5-------2-2-3--------------------------------------|
E|------------------------------------------------------------------------|#/20t2##/20t1#

#21t1##21t2#e|-----------------------------------------------------1-------------------|
B|--8----5-6-8--5---5---5-------3-5-6--------------------------------------|
G|----7-----------7---5---7---3-------5------0---2~~~~---------------------|
D|-------------------------------------------------------------------------|
A|-------------------------------------------------------------------------|
E|-------------------------------------------------------------------------|#/21t2##/21t1#
Composición: Claude DebussyColaboración y revisión: