No Puedo Verte

La Gusana Ciega

A
123
X02220
A5
12
X022XX
Am
123
X02210
B5
134
X244XX
Bm
234
X24432
D5
134
X577XX
E5
12
022XXX
Em
12
022000
G
123
320003
G5
134
355XXX
Tono: G
#1t1##1t2#  -=Intro=- (clean guitar)#/1t2##/1t1#
#2t1#    Bm                           
#2t2#e|--------------------------------|]   
B|--------------------------------|]  
G|--------------------------------|]   
D|-----------------------------2--|]   
A|--2222-0-2222-0-2222-0-2-4-5----|]   
E|--------------------------------|] x2   #/2t2##/2t1#

#3t1##3t2# -=Riff 1=-                               -=Riff 2=-#/3t2##/3t1#
#4t1#    Bm                                     G
#4t2#e|--------------------------------|]   e|-------------------------------|]
B|--------------------------------|]   B|-------------------------------|]
G|--------------------------------|]   G|-------------------------------|]
D|-----------------------------2--|]   D|-------------------------------|]
A|--2222-0-2222-0-2222-0-2-4-5----|]   A|--------------------------2-4--|]
E|--------------------------------|]   E|--3333-0-3333-0-3333-0-3-5-----|]#/4t2##/4t1#
Bm                        G 
Hay cosas que yo puedo perdonar,
Bm                             G 
pero hay cosas que tu tienes que explicar,
Bm                        G 
porque yo siempre tengo que esperar,
#5t1##5t2#e|--------------------------------------------------------|]    
B|--------------------------------------------------------|]
G|-------7-7-7-7-7-7-7-7-7-7-9-9-9-9-9-9-9-9-9------------|]
D|-------7-7-7-7-7-7-7-7-7-7-9-9-9-9-9-9-9-9-9-7-7-7-7-7--|]
A|-------5-5-5-5-5-5-5-5-5-5-7-7-7-7-7-7-7-7-7-7-7-7-7-7--|]
E|---------------------------------------------5-5-5-5-5--|] (w/dist)  #/5t2##/5t1#
         D5                  E5                A5
en una esquina, mientras tu bailas con alguien más.

#6t1#    Bm                           
#6t2#e|--------------------------------|]   
B|--------------------------------|]  
G|--------------------------------|]   
D|-----------------------------2--|]   
A|--2222-0-2222-0-2222-0-2-4-5----|]   
E|--------------------------------|] x1#/6t2##/6t1#

#7t1##7t2# -=Riff 1=-                               -=Riff 2=-#/7t2##/7t1#
#8t1#    Bm                                     G
#8t2#e|--------------------------------|]   e|-------------------------------|]
B|--------------------------------|]   B|-------------------------------|]
G|--------------------------------|]   G|-------------------------------|]
D|-----------------------------2--|]   D|-------------------------------|]
A|--2222-0-2222-0-2222-0-2-4-5----|]   A|--------------------------2-4--|]
E|--------------------------------|]   E|--3333-0-3333-0-3333-0-3-5-----|]#/8t2##/8t1#
Bm                     G 
Yo no soy nadie para desconfiar,
Bm                       G 
pero últimamente nada ha sido igual,
Bm                      G 
piensa dos veces antes de jugar,
#9t1##9t2#e|------------------------------------------------------------|]   
B|------------------------------------------------------------|]
G|-----------7-7-7-7-7-7-7-7-7-7-9-9-9-9-9-9-9-9-9------------|]
D|--5--7--9--7-7-7-7-7-7-7-7-7-7-9-9-9-9-9-9-9-9-9-7-7-7-7-7--|]
A|--5--7--9--5-5-5-5-5-5-5-5-5-5-7-7-7-7-7-7-7-7-7-7-7-7-7-7--|]
E|--3--5--7----------------------------------------5-5-5-5-5--|] (w/dist)#/9t2##/9t1#
    G5 A5 B5 D5                  E5                A5
   con mi cariño, que estoy dispuesto a hacerte llorar.

#10t1##10t2#-=Coro=- x2
e|-----------------------------------------------------------------|]   
B|-----------------------------------------------------------------|]
G|------------------------------9-9-9-9-9-9-9-9-9------------------|]
D|--------9-9-9-9-9-9-9-9-9-9-9-9-9-9-9-9-9-9-9-9-7-7-7-7-7-7-7-7--|]
A|--------9-9-9-9-9-9-9-9-9-9-9-7-7-7-7-7-7-7-7-7-7-7-7-7-7-7-7-7--|]
E|--------7-7-7-7-7-7-7-7-7-7-7-------------------5-5-5-5-5-5-5-5--|] (w/dist)#/10t2##/10t1#
          B5                    E5                A5
Porque yo no, no, no, no puedo verte, con alguien más. 

#11t1##11t2#-=Intro=- (clean guitar)#/11t2##/11t1#
#12t1#   Bm                            G
#12t2#e|-------------------------------------------------------------|]
B|-------------------------------------------------------------|]
G|-------------------------------------------------------------|]
D|-------------------------------------------------------------|]
A|-0-2222-0-2222-0-2222-0-2222-0--------------------------2-4--|]
E|--------------------------------3333-0-3333-0-3333-0-3-5-----|]#/12t2##/12t1#

#13t1##13t2# -=Riff 1=-                               -=Riff 2=-#/13t2##/13t1#
#14t1#    Bm                                     G
#14t2#e|--------------------------------|]   e|-------------------------------|]
B|--------------------------------|]   B|-------------------------------|]
G|--------------------------------|]   G|-------------------------------|]
D|-----------------------------2--|]   D|-------------------------------|]
A|--2222-0-2222-0-2222-0-2-4-5----|]   A|--------------------------2-4--|]
E|--------------------------------|]   E|--3333-0-3333-0-3333-0-3-5-----|]#/14t2##/14t1#
Bm                       G 
Hay cosas que yo puedo perdonar,
Bm                         G 
pero últimamente nada ha sido igual,
Bm                          G 
no te sorprendas si algún día estas,
#15t1##15t2#e|-----------------------------------------------------------|]  
B|-----------------------------------------------------------|]
G|-------------7-7-7-7-7-7-7-7-7-9-9-9-9-9-9-9-9-------------|]
D|--5~---------7-7-7-7-7-7-7-7-7-9-9-9-9-9-9-9-9--7-7-7-7-7--|]
A|--5~---------5-5-5-5-5-5-5-5-5-7-7-7-7-7-7-7-7--7-7-7-7-7--|]
E|--3~--------------------------------------------5-5-5-5-5--|] (w/dist)#/15t2##/15t1#
              D5                E5               A5
     sin mi cariño, y estoy en brazos de alguien más.

#16t1##16t2#-=Coro=- x2
e|-----------------------------------------------------------------|]   
B|-----------------------------------------------------------------|]
G|------------------------------9-9-9-9-9-9-9-9-9------------------|]
D|--------9-9-9-9-9-9-9-9-9-9-9-9-9-9-9-9-9-9-9-9-7-7-7-7-7-7-7-7--|]
A|--------9-9-9-9-9-9-9-9-9-9-9-7-7-7-7-7-7-7-7-7-7-7-7-7-7-7-7-7--|]
E|--------7-7-7-7-7-7-7-7-7-7-7-------------------5-5-5-5-5-5-5-5--|] (w/dist)#/16t2##/16t1#
          B5                    E5                A5
Porque yo no, no, no, no puedo verte, con alguien más. 

#17t1##17t2#-=Pre-Solo=- x3#/17t2##/17t1#
#18t1#    Em       Am        Bm      Em
#18t2#e|--9h10-----9h10------9h10----11s12-10--|]
B|---------------------------------------|]
G|---------------------------------------|]
D|---------------------------------------|]
A|---------------------------------------|]
E|---------------------------------------|] x2 (soft dist)#/18t2##/18t1#
   Em          Am   Bm           Em
No quiero descubrir que te vas a ir,
   Em         Am      Bm           G        
no puedo permitir que me engañes a mí 

#19t1##19t2#e|---------------------------|]
B|---------------------------|]
G|---------------------------|]
D|---2--------------7-7-7-7--|]
A|---2--------------7-7-7-7--|]
E|---0--------------5-5-5-5--|] (w/dist)#/19t2##/19t1#
     Em             A
como yo te engaño a tí.

#20t1##20t2#-=Solo=-  
e|-----------------------------------------------------------|]
B|-----------------------------------------------------------|]
G|-----------------------------------------------------------|]
D|------------2-4-5-4~---5-4-2-------------------------------|]
A|--0-0-2-4-5------------------5-4-2-4-5~---5-4-2------------|]
E|------------------------------------------------5-3-2-3-5--|]#/20t2##/20t1#

#21t1##21t2#e|--------------------------------------------------------|]
B|--------------------------------------------------------|]
G|--------------------------------------------------------|]
D|--------------2-4--5~---2-4-5-4-2-----------------------|]
A|--------2-4-5---------------------5-4-5~---2-4~---2-4~--|]
E|--2-3-5-------------------------------------------------|]#/21t2##/21t1#

#22t1##22t2#-=2 guitars in this part=-
e|-----7----7----10---10-----7-777/0------------------------|]
B|-----7----7----10---10-----8-888/0------------------------|]
G|------------777--777---999--999---------------------------|]
D|--999--999--777--777---999--999---------------------------|]
A|--999--999--555--555---777--777--------2---4~~----2---4~~-|]
E|--777--777------------------------------------------------|]#/22t2##/22t1#

#23t1##23t2#-=Coro=- x2
e|-----------------------------------------------------------------|]   
B|-----------------------------------------------------------------|]
G|------------------------------9-9-9-9-9-9-9-9-9------------------|]
D|--------9-9-9-9-9-9-9-9-9-9-9-9-9-9-9-9-9-9-9-9-7-7-7-7-7-7-7-7--|]
A|--------9-9-9-9-9-9-9-9-9-9-9-7-7-7-7-7-7-7-7-7-7-7-7-7-7-7-7-7--|]
E|--------7-7-7-7-7-7-7-7-7-7-7-------------------5-5-5-5-5-5-5-5--|] (w/dist)#/23t2##/23t1#
          B5                    E5                A5
Porque yo no, no, no, no puedo verte, con alguien más. 

#24t1##24t2#-=Final Coro: x1=-                                                    (distor off)
e|-----------------------------------------------------------------2--|]
B|----------------------------------------------------P------------3--|]
G|--------------------------------9-9-9-9-9-9-9-9-9-9-A------------4--|]
D|--------9-9-9-9-9-9-9-9-9-9-9-9-9-9-9-9-9-9-9-9-9-9-U------------4--|]
A|--------9-9-9-9-9-9-9-9-9-9-9-9-7-7-7-7-7-7-7-7-7-7-S---------------|]
E|--------7-7-7-7-7-7-7-7-7-7-7-7---------------------A---------------|]#/24t2##/24t1#
          B5                       E5                              Bm
Porque yo no, no, no, no quiero perderte,               con alguien más. 

Composición: Daniel Gutierrez / German Arroyo / Jorge VilchisColaboración y revisión: