Palavras Ao Vento

Cássia Eller

A
X0P222X
A6(9)
123
X02202
A7M(9)
12
X02100
A9
12
X02200
Bm11/A
123
X04430
Bm7(11)
34
XP24230
Bm7(11)/A
1234
X04435
C#7
34
X46464
D
123
XX0232
E
123
022100
F#m7(11)
123
2X2200
Tono: G
Intro 2x: A  Bm11/A  Bm7(11)/A
          A6(9)  A  Bm11/A

Primeira Parte:

A                              Bm11/A
Ando por aí querendo te encontrar
           Bm7(11)/A            A6(9)
Em cada esquina paro em cada olhar
             A9
Deixo a tristeza e trago 
       Bm11/A
A esperança em seu lugar

 A                             Bm11/A
Que o nosso amor pra sempre viva
    Bm7(11)/A
Minha dádiva
A6(9)          A9
      Quero poder jurar
             Bm11/A
Que essa paixão jamais será

Refrão:

   A
Palavras apenas
Bm11/A       Bm7(11)/A
       Palavras pequenas
A6(9)    A9    Bm11/A
      Palavras

Intro: A  Bm11/A  Bm7(11)/A
       A6(9)  A  Bm11/A

Primeira Parte:

A9       A7M(9)                Bm7(11)
Ando por aí querendo te encontrar
                                A9
Em cada esquina paro em cada olhar
             A7M(9)
Deixo a tristeza e trago 
       Bm7(11)
A esperança em seu lugar

A9               A7M(9)         Bm7(11)
   Que o nosso amor pra sempre viva

Minha dádiva
A9          A7M(9)
   Quero poder jurar
             D            C#7
Que essa paixão jamais será

Refrão:

   F#m7(11)
Palavras apenas
   E
Palavras pequenas
A9              C#7
   Palavras, momento

   F#m7(11)
Palavras, palavras
   E
Palavras, palavras
A9              C#7
   Palavras ao vento

Primeira Parte:

A9       A7M(9)                Bm7(11)
Ando por aí querendo te encontrar
                                A9
Em cada esquina paro em cada olhar
             A7M(9)
Deixo a tristeza e trago 
       Bm7(11)
A esperança em seu lugar

A9               A7M(9)         Bm7(11)
   Que o nosso amor pra sempre viva

Minha dádiva
A9          A7M(9)
   Quero poder jurar
             D            C#7
Que essa paixão jamais será

Refrão Final:

   F#m7(11)
Palavras apenas
   E
Palavras pequenas
A9              C#7
   Palavras, momento

   F#m7(11)
Palavras, palavras
   E
Palavras, palavras
A9              C#7
   Palavras ao vento

   F#m7(11)
Palavras apenas, apenas
E
  Palavras pequenas
A9           C#7  D  Bm7(11)  D  A9
   Palavras

Dedilhado Intro, Primeira Parte e Primeiro Refrão:

Parte 1

#1t1#   A
#1t2#E|------------------------------------------|
B|-2--2-2-2--2---2-2----2-2-2---------------|
G|-2--2-2-2--2---2-2----2-2-2---------------|
D|-2--2-2-2--2h4---4p2--2-2-2---------------|
A|-0----------------------------------------|
E|------------------------------------------|
   ↓  ↑ ↓ ↑  ↓   ↑ ↓    ↓ ↑ ↓#/1t2##/1t1#

Parte 2

#2t1#  Bm11/A       Bm7(11)/A
#2t2#E|-0--0-0-0-0--5-5-5-5--5-5-5-5-------------|
B|-3--3-3-3-3--3-3-3-3--3-3-3-3-------------|
G|-4--4-4-4-4--4-4-4-4--4-4-4-4-------------|
D|-4--4-4-4-4--4-4-4-4--4-4-4-4-------------|
A|-0-----------0----------------------------|
E|------------------------------------------|
   ↓  ↓ ↑ ↓ ↑  ↓ ↓ ↑ ↓  ↓ ↑ ↓ ↑#/2t2##/2t1#

Parte 3

#3t1#   A6(9)       A9
#3t2#E|-2--2-2-2-2--0-0-0-0--0-0-0-0-------------|
B|-0--0-0-0-0--0-0-0-0--0-0-0-0-------------|
G|-2--2-2-2-2--2-2-2-2--2-2-2-2-------------|
D|-2--2-2-2-2--2-2-2-2--2-2-2-2-------------|
A|-0-----------0----------------------------|
E|------------------------------------------|
   ↓  ↓ ↑ ↓ ↑  ↓ ↓ ↑ ↓  ↓ ↑ ↓ ↑#/3t2##/3t1#

Parte 4

#4t1#   Bm11/A
#4t2#E|-0--0-----0-----0-----0-------------------|
B|-3----3-----3-----3-----3-----------------|
G|-4------4-----4-----4-----4---------------|
D|-4----------------------------------------|
A|-0----------------------------------------|
E|------------------------------------------|
   ↓#/4t2##/4t1#
Composición: Marisa Monte / Moraes MoreiraColaboración y revisión: Leandro SandimVinícius NevesLucas DuarteGabriel Blancoy más 3
videoclase Palavras Ao Vento (completa)