Bb
234
X13331
C
123
X32010
Dm
123
XX0231
F
234
133211
Gm
34
355333
Tono: F
Intro:


E|--------------------|-----------
B|--------------------|-----------
G|--------------------|-----------
D|--5h7--5h7--5h7-----|-5h7--10-7-
A|-----------------3--|-----------
E|--------------------|-----------

E||-------------------|---------| 
B||-------------------|---------| 
G||-------------------|---------| 
D||-----5/7--5\3--5---|---------| 
A||-3--------------3-|--3-3\1-1-| 
E||-------------------|---------| 



E|----------------------|-------
B|----------------------|-------
G|----------------------|-------
D|--5h7--5h7--5h7--5h7--|--5h7--
A|----------------------|3------
E|----------------------|-------

E|-----------------|-----------------
B|-----------------|-----------------
G|-----------------|-----------------
D|5h7--5h7--5h7----|--10-7\5--3h5--7-
A|---------------3-|-----------------
E|-----------------|-----------------

----------| 
----------| 
----------| 
8---------| 
--3-------| 
----------| 



E|----------------------|---------
B|----------------------|---------
G|----------------------|---------
D|----------------------|---------
A|-3h5--3-5p3-----------|---------
E|----------------------|---------


F                                
We didn't care if people stared, 
Dm
we'd make out in a crowd somewhere
C                                 
Somebody'd tell us to get a room, 
     Bb
it's hard to believe that was me and
 you
F                                 
Now we keep saying that we're ok, 
   Dm
but I don't want to settle for good 
not great
C                              
I miss the way that it felt back 
       Bb
then, I wanna feel that way again

Refrão:

F                                 
Been so long that you've forget, 
    Dm
the way I used to kiss your neck
C           Bb
Remind me, remind me
F                      Dm
So on fire so in love. Way back when
 we couldn't get enough
C Bb Remind me, remind me Verso: F Remember the airport dropping me Dm off, we were kissing goodbye and we couldn't stop C I felt bad cause you missed your Bb flight, but that meant we had one more night Refrão: F Do you remember how it used to be, Dm we'd turn out the lights and didn't just sleep C Bb Remind me, baby remind me F Dm Oh so on fire so in love, that look in your eyes that I miss so much C Bb Remind me, baby remind me Ponte: Gm I wanna feel that way, yeah I wanna F hold you close Gm Oh If you still love me, don't just F assume I know (Solo) Refrão: F Do you remember the way it felt? Dm You mean back when we couldn't control ourselves C Bb Remind me, yeah remind me F All those things that you used to Dm do, that made me fall in love with you C Bb Remind me, oh baby remind me Verso: F Yeah you'd wake up in my old Dm t-shirt, all those mornings I was late for work C Bb F Dm Remind me, oh baby remind me C Bb Oh baby remind me, baby remind... F Dm Yeah you'd wake
Composición: Brad PasleyColaboración y revisión: diego garciaMarcello Garcia

Utilizamos cookies para personalizar sua experiência. Ao acessar o site, você concorda com a nossa Política de Privacidade.