Eight Miles High

The Byrds

C
123
X32010
C9
34
X35533
Csus2
34
X35533
D
123
XX0232
Dsus2
12
XX0230
Em
12
022000
G
123
320003
G/E
123
020033
Tono: G
Electric 12 str

chords
Em  F#m11/G  G/E  D   Dsus2  C 
0   0        0    2   0      0 
 C9 Csus2
 0  0
0   0        0    3   3      1  3  1
0   2        4    2   2      0  0  0
2   4        5    0   0      2  2  0
2   4        5    #   #      3  3  3
0   0        0    #   #      #  #  #


intro

----------------------------------
----------------------------------
----------------------------------
----------------------------------
----------------------------------
-0--0-0-0-0-0---0-0-0-0-0-0-0-0-0-

-|----------------------------------
-|----------------------------------
-|----------------------------------
-|----------------------------------
-|----------------------------------
-|0-0--0-0-0-0-0-0-0-0-0-0-0-0--0-0-



(12 string)

----------------------------------
----------------------------------
-7---4------------7-4-------------
---------5---7--------5h7-4---4---
----------------------------5---5-
----------------------------------

-|----------------------------------
-|----------------------------------
-|----------------------------------
-|------------4-4-7-5-4---4---------
-|7-----4-5-7-----------5---5-7-----
-|--7-7-------------------------7-5-

-|---------| 
-|---------| 
-|---------| 
-|---------| 
-|--4------| 
-|7----5-7-| 


--------------------------------- --------------------------------- ----------------------4------4--- -----------------4--7----7-4---4- -----------4-5-7----------------- -5-7--5-7------------------------ -|-------------------------------------------| -|-------------------------------------------| -|-------------------------------------------| -|4h5p4--------------------------------------| -|------5-7-4-4h5----4-------4-4-------------| -|-----------------7---5-7-7-----5-2-2b--0-0-| -12-12-12-13p12-12-13p12-12-13-12- ---------------------------------- ---------------------------------- ---------------------------------- ---------------------------------- ---------------------------------- -|13-12-13-12-13-12-13-12-13-12-13- -|--------------------------------- -|--------------------------------- -|--------------------------------- -|--------------------------------- -|--------------------------------- -|12-13-12-| -|---------| -|---------| -|---------| -|---------| -|---------| verses Em F#m11/G G/E D eight miles high and when Dsus2 C C9 you touch down G D Dsus2 you'll find that its stranger C Csus2 C Csus2 than known Em F#m11/G G/E D signs in the street that say Dsus2 C C9 where youre going G D Dsus2 C are somewhere just being their Csus2 C Csus2 own Em ---------------------------------- --------------0------------------- -------0--2------2--4--4--4--2---- -------2--4------4--5--5--5--4---- ----2----------------------------- -0-------------------------------- -|----| -|----| -|4-2-| -|5-4-| -|----| -|----| nowhere is there warmth to be found among those afraid of losing their ground rain gray town known for its sound in places small faces unbound round the squares huddled in storms some laughing some just shapeless forms sidewalk scenes and black limousines some living some standing alone
Composición: David Crosby / Gene ClarkColaboración y revisión: Luciano Souza

Utilizamos cookies para personalizar sua experiência. Ao acessar o site, você concorda com a nossa Política de Privacidade.