Tears Don't Fall

Bullet For My Valentine

Tono: G
Intro:

#1t1##1t2#D|----------------------------------------------------------------------------|
A|----------------------------------------------------------------------------|
F|------9---9-9---9---9-9-10-9--------------------------------------10H12-----|
C|--7-7---7-----7---7---------------10 --10-10---12----12-12--10H12-----------|
G|------------------------------8-8----8-------10----10-----------------------|
C|----------------------------------------------------------------------------|#/1t2##/1t1#

#2t1##2t2#D|-----------------------------|
A|-----------------------------|
F|-----------------------------|
C|-----12----12-12-10/12-------|
G|--10----10-------------------|
C|-----------------------------|#/2t2##/2t1#

LET'S GOOOOOOOOO

(Intro Pt2)

#3t1##3t2#D|---------------------------------------|
A|----------6-6-6-6--5-5-5-5--6-6-6-6----|
F|----------5-5-5-5--5-5-5-5--5-5-5-5----|
C|-3-3-3-3--3-3-3-3--3-3-3-3--3-3-3-3----|
G|-3-3-3-3--3-3-3-3--3-3-3-3--3-3-3-3----|
C|-3-3-3-3--3-3-3-3--3-3-3-3--3-3-3-3----|#/3t2##/3t1#

#4t1##4t2#D|----------------------------------|
A|----------------------------------|
F|---------7-7-7-7-5-5-5-5-4-4-4-4--|
C|-5-5-5-5--------------------------|
G|-5-5-5-5--------------------------|
C|-5-5-5-5--------------------------|#/4t2##/4t1#


#5t1##5t2#D|---------------------------------------|
A|----------6-6-6-6--5-5-5-5--6-6-6-6----|
F|----------5-5-5-5--5-5-5-5--5-5-5-5----|
C|-3-3-3-3--3-3-3-3--3-3-3-3--3-3-3-3----|
G|-3-3-3-3--3-3-3-3--3-3-3-3--3-3-3-3----|
C|-3-3-3-3--3-3-3-3--3-3-3-3--3-3-3-3----|#/5t2##/5t1#

#6t1##6t2#D|----------------------------------|
A|----------------------------------|
F|---------7-7-7-7-9-9-9-9-4-4-4-4--| final ---7b9---
C|-5-5-5-5--------------------------|
G|-5-5-5-5--------------------------|
C|-5-5-5-5--------------------------|#/6t2##/6t1#


With blood shot eyes I watch you sleeping
The warmth I feel beside me is slowly fading
Would she hear me if I called her name?
Would she hold me if she knew my shame?

#7t1##7t2#D|----------------------------------------------------------------------------|
A|----------------------------------------------------------------------------|
F|------9---9-9---9---9-9-10-9--------------------------------------10p12-----|
C|--7-7---7-----7---7---------------10 --10-10---12----12-12--10p12-----------|
G|------------------------------8-8----8-------10----10-----------------------|
C|----------------------------------------------------------------------------|#/7t2##/7t1#


Pré-Refrão:

There's always something different going wrong
The path I walk's in the wrong direction
There's always someone fucking hanging on
Can anybody help me make things better?

#8t1##8t2#D|------------------------------------------------|
A|------------------------------------------------|
F|-------12---------------------12----------------|
C|-9--10----10-9-10-10/7---9-10----10-9-10-10/12--|
G|------------------------------------------------|
C|------------------------------------------------|#/8t2##/8t1#


#9t1##9t2#D|------------------------------------------------------------|
A|------------------------------------------------------------|
F|-------12---------------------------------------------------|
C|-9--10----10-9-10-10/7--3-3-3-3--5-5-5-5--------------------|
G|------------------------3-3-3-3--5-5-5-5--------------------|
C|------------------------3-3-3-3--5-5-5-5--(abafado)--17/0---|#/9t2##/9t1#


Refrão:

Your tears don't fall
They crash around me
Her conscience calls the guilty to come home
Your tears don't fall
They crash around me
Her conscience calls the guilty to come home

#10t1##10t2#D|---------------------------------------|
A|----------6-6-6-6--5-5-5-5--6-6-6-6----|
F|----------5-5-5-5--5-5-5-5--5-5-5-5----|
C|-3-3-3-3--3-3-3-3--3-3-3-3--3-3-3-3----|
G|-3-3-3-3--3-3-3-3--3-3-3-3--3-3-3-3----|
C|-3-3-3-3--3-3-3-3--3-3-3-3--3-3-3-3----|#/10t2##/10t1#

#11t1##11t2#D|----------------------------------|
A|----------------------------------|
F|---------7-7-7-7-5-5-5-5-4-4-4-4--|
C|-5-5-5-5--------------------------|
G|-5-5-5-5--------------------------|
C|-5-5-5-5--------------------------|#/11t2##/11t1#


#12t1##12t2#D|---------------------------------------|
A|----------6-6-6-6--5-5-5-5--6-6-6-6----|
F|----------5-5-5-5--5-5-5-5--5-5-5-5----|
C|-3-3-3-3--3-3-3-3--3-3-3-3--3-3-3-3----|
G|-3-3-3-3--3-3-3-3--3-3-3-3--3-3-3-3----|
C|-3-3-3-3--3-3-3-3--3-3-3-3--3-3-3-3----|#/12t2##/12t1#

#13t1##13t2#D|----------------------------------|
A|----------------------------------|
F|---------7-7-7-7-9-9-9-9-4-4-4-4--| ---7b9---
C|-5-5-5-5--------------------------|
G|-5-5-5-5--------------------------|
C|-5-5-5-5--------------------------|#/13t2##/13t1#

The moments died, I hear no screaming
The visions left inside me are slowly fading
Would she hear me if I called her name?
Would she hold me if she knew my shame?

#14t1##14t2#D|----------------------------------------------------------------------------|
A|----------------------------------------------------------------------------|
F|------9---9-9---9---9-9-10-9--------------------------------------10p12-----|
C|--7-7---7-----7---7---------------10 --10-10---12----12-12--10p12-----------|
G|------------------------------8-8----8-------10----10-----------------------|
C|----------------------------------------------------------------------------|#/14t2##/14t1#

Pré-Refrão:
There's always something different going wrong
The path I walk's in the wrong direction
There's always someone fucking hanging on
Can anybody help me make things better?
#15t1##15t2#D|------------------------------------------------|
A|------------------------------------------------|
F|-------12---------------------12----------------|
C|-9--10----10-9-10-10/7---9-10----10-9-10-10/12--|
G|------------------------------------------------|
C|------------------------------------------------|#/15t2##/15t1#


#16t1##16t2#D|------------------------------------------------------------|
A|------------------------------------------------------------|
F|-------12---------------------------------------------------|
C|-9--10----10-9-10-10/7--3-3-3-3--5-5-5-5--------------------|
G|------------------------3-3-3-3--5-5-5-5--------------------|
C|------------------------3-3-3-3--5-5-5-5--(abafado)--17/0---|#/16t2##/16t1#



Refrão:
Your tears don't fall
They crash around me
Her conscience calls the guilty to come home
Your tears don't fall
They crash around me
Her conscience calls the guilty to come home

#17t1##17t2#D|---------------------------------------|
A|----------6-6-6-6--5-5-5-5--6-6-6-6----|
F|----------5-5-5-5--5-5-5-5--5-5-5-5----|
C|-3-3-3-3--3-3-3-3--3-3-3-3--3-3-3-3----|
G|-3-3-3-3--3-3-3-3--3-3-3-3--3-3-3-3----|
C|-3-3-3-3--3-3-3-3--3-3-3-3--3-3-3-3----|#/17t2##/17t1#

#18t1##18t2#D|----------------------------------|
A|----------------------------------|
F|---------7-7-7-7-5-5-5-5-4-4-4-4--|
C|-5-5-5-5--------------------------|
G|-5-5-5-5--------------------------|
C|-5-5-5-5--------------------------|#/18t2##/18t1#


#19t1##19t2#D|---------------------------------------|
A|----------6-6-6-6--5-5-5-5--6-6-6-6----|
F|----------5-5-5-5--5-5-5-5--5-5-5-5----|
C|-3-3-3-3--3-3-3-3--3-3-3-3--3-3-3-3----|
G|-3-3-3-3--3-3-3-3--3-3-3-3--3-3-3-3----|
C|-3-3-3-3--3-3-3-3--3-3-3-3--3-3-3-3----|#/19t2##/19t1#

#20t1##20t2#D|----------------------------------|
A|----------------------------------|
F|---------7-7-7-7-9-9-9-9-4-4-4-4--|
C|-5-5-5-5--------------------------|
G|-5-5-5-5--------------------------|
C|-5-5-5-5--------------------------|#/20t2##/20t1#


#21t1##21t2#D|----------------------------------|
A|----------------------------------|
F|----------------------------------|
C|----------------------------------|
G|-7--------------------------------|
C|-7-repete varias vezes abafando---|#/21t2##/21t1#

#22t1##22t2#D|----------------------------------|
A|----------------------------------|
F|----------------------------------|
C|-------------7-9-7-13-12-10-7-----|
G|-7-----------7-9-7-13-12-10-7-----|
C|-7-7-7-7-7-7-7-9-7-13-12-10-7-----|#/22t2##/22t1#

#23t1##23t2#D|-------------------------------------------------------------------------|
A|-------------------------------------------------------------------------|
F|-------------------------------------------------------------------------|
C|-7----------10-9-7-9-9-10-7--7---------5-3-2-3--------7-9-7-13-12-10-7---|
G|-7---------------------------7-----------------3-5-3--7-9-7-13-12-10-7---|
C|-7-7-7-7-7-------------------7-7-7-7-7----------------7-9-7-13-12-10-7---|#/23t2##/23t1#

This battered room I've seen before
The broken bones they heal no more, no more
With my last breath I'm choking,
Will this ever end? I'm hoping,
My world is over one more time.

#24t1##24t2#D|---------------------------------|
A|---------------------------------|
F|---------------------------------|
C|-3-3-7-7-0-7-7-5---0-7-7-5-------|
G|-3-3-7-7---------7---------7-----|
C|-3-3-7-7-------------------------|#/24t2##/24t1#

#25t1##25t2#D|------------------------------------------------------------|
A|------------------------------------------------------------|
F|------------------------------------------------------------|
C|-3-3-3-2-2-2-3-3-3-5-5-5-3-3-3-2-2-2--0-7----------7-7-7----|
G|-3-3-3-2-2-2-3-3-3-5-5-5-3-3-3-2-2-2--0-7----------7-7-7----|
C|-3-3-3-2-2-2-3-3-3-5-5-5-3-3-3-2-2-2--0-7-7-7-7-7--7-7-7----|#/25t2##/25t1#

#26t1#Solo:
#26t2#D|-20p17----17---------20p17----17---------20p17----17---------20p17-----17----15/17-|
A|------h20----h20p17-------h20----h20p17-------h20----h20p17--------h20----20-------|
F|-----------------------------------------------------------------------------------|
C|-----------------------------------------------------------------------------------|
G|-----------------------------------------------------------------------------------|
C|-----------------------------------------------------------------------------------|#/26t2##/26t1#

#27t1##27t2#D|-20p17----17---------20p17----17---------20p17----17----------------------|
A|------h20----h20p17-------h20----h20p17-------h20----h20p17--20p17--------|
F|-------------------------------------------------------------------19-19b-|
C|--------------------------------------------------------------------------|
G|--------------------------------------------------------------------------|
C|--------------------------------------------------------------------------|#/27t2##/27t1#

#28t1##28t2#D|-20p17----17---------------------------------------------------|
A|------h20----h20p17--20p17----17-------------------------------|
F|---------------------------19----19p17--19p17-----17-----------|
C|----------------------------------------------h19----19-17-17b-|
G|---------------------------------------------------------------|
C|---------------------------------------------------------------|#/28t2##/28t1#

#29t1##29t2#D|----------------------------------h17-----------------------------|
A|-----------------------17h20p17h20--------------------------------|
F|----17h19p17------------------------------------------------------|
C|-19----------19/17--17----------------13/12bbbbb~~~~~-10----10----|
G|---------------------------------------------------------12----12-|
C|------------------------------------------------------------------|#/29t2##/29t1#

#30t1##30t2#D|---------------------------------------------------------------|
A|---------------------------------------------------------------|
F|---------------------------------------------------------------|
C|----10-12b-10--------10-12*-12-10--------10-12*-12-10----10----|
G|-12-----------12--12--------------12--12--------------12----12-|
C|---------------------------------------------------------------|#/30t2##/30t1#

#31t1##31t2#D|--------------------------------------------|
A|--------------------------------------------|
F|--------------------------------------------|
C|-12h14p12p10h12p10p9h10p9p7~///-------------|
G|--------------------------------------------|
C|--------------------------------------------|#/31t2##/31t1#


(Intro)
Would she hear me if I called her name?
Would she hold me if she knew my shame?

#32t1##32t2#D|----------------------------------------------------------------------------|
A|----------------------------------------------------------------------------|
F|------9---9-9---9---9-9-10-9--------------------------------------10p12-----|
C|--7-7---7-----7---7---------------10 --10-10---12----12-12--10p12-----------|
G|------------------------------8-8----8-------10----10-----------------------|
C|----------------------------------------------------------------------------|#/32t2##/32t1#

Prechorus:

There's always something different going wrong
The path I walk's in the wrong direction
There's always someone fucking hanging on
Can anybody help me make things better?

#33t1##33t2#D|-----------------------------------------------|
A|-----------------------------------------------|
F|-9-10-12-10-9-10-10/7--9-10-12-10-9-10-10/12---|
C|-----------------------------------------------|
G|-----------------------------------------------|
C|-----------------------------------------------|#/33t2##/33t1#

#34t1##34t2#D|-------------------------------------|
A|-------------------------------------|
F|-------------------------------------|
C|-3-3-3-3--5-5-5-5--------------------|
G|-3-3-3-3--5-5-5-5--------------------|
C|-3-3-3-3--5-5-5-5--(abafado)--17/0---|#/34t2##/34t1#

Refrão:

Your tears don't fall
They crash around me
Her conscience calls the guilty to come home
Your tears don't fall
They crash around me
Her conscience calls the guilty to come home

#35t1##35t2#D|---------------------------------------|
A|----------6-6-6-6--5-5-5-5--6-6-6-6----|
F|----------5-5-5-5--5-5-5-5--5-5-5-5----|
C|-3-3-3-3--3-3-3-3--3-3-3-3--3-3-3-3----|
G|-3-3-3-3--3-3-3-3--3-3-3-3--3-3-3-3----|
C|-3-3-3-3--3-3-3-3--3-3-3-3--3-3-3-3----|#/35t2##/35t1#

#36t1##36t2#D|----------------------------------|
A|----------------------------------|
F|---------7-7-7-7-5-5-5-5-4-4-4-4--|
C|-5-5-5-5--------------------------|
G|-5-5-5-5--------------------------|
C|-5-5-5-5--------------------------|#/36t2##/36t1#


#37t1##37t2#D|---------------------------------------|
A|----------6-6-6-6--5-5-5-5--6-6-6-6----|
F|----------5-5-5-5--5-5-5-5--5-5-5-5----|
C|-3-3-3-3--3-3-3-3--3-3-3-3--3-3-3-3----|
G|-3-3-3-3--3-3-3-3--3-3-3-3--3-3-3-3----|
C|-3-3-3-3--3-3-3-3--3-3-3-3--3-3-3-3----|#/37t2##/37t1#

#38t1##38t2#D|----------------------------------|
A|----------------------------------|
F|---------7-7-7-7-9-9-9-9-4-4-4-4--|
C|-5-5-5-5--------------------------|
G|-5-5-5-5--------------------------|
C|-5-5-5-5--------------------------|#/38t2##/38t1#

Your tears don't fall
They crash around me
Her conscience calls the guilty to come home

#39t1#(Matt Tuck)
#39t2#D|---------------------------------------------------------------------------|
A|-4-5-7-5-4-5-5/2---4-5-7-5-4-5-5/7---4-5-7-5-4-5-5/2---2-2/4-4/6~~---------|
F|---------------------------------------------------------------------------|
C|---------------------------------------------------------------------------|
G|---------------------------------------------------------------------------|
C|---------------------------------------------------------------------------|#/39t2##/39t1#
Composición: Bullet for My Valentine / Don Gilmore / Jason James / Matt Tuck / Matthew Tuck / Michael Padget / Michael ThomasColaboración y revisión: Filipe RiciThiago TolentinoJonatas MarchonKonradol LPy más 1