Learning To Fall

Boys Like Girls

Tono: G
#1t1#                           Learning to fall
#1t2#                  |This is my best shot. It needs a lot|
                  |of work but with help it will be cor|#/1t2##/1t1#
                  |ect.                                |

I Know the first verse is perfect because I saw him play it in concert
and this is what he is doing. Verse thanks to my guitar teacher.
Verse 1
#2t1##2t2#e--33333333-33333333--------------------|
B--33333333-44444444-66666666-11111111--|\
G--33333333-33333333-77777777-22222222--| \
D--44444444-44444444-88888888-33333333--| / X 3 
A---------------------------------------|/
E---------------------------------------|#/2t2##/2t1#

#3t1#Pre-Chorus
#3t2#e------3---3~--|\
B------3---4~--| \
G------3---3~--|  \
D------5---5~--|  / X 2
A--------------| /
E--------------|/#/3t2##/3t1#
 "I keep it hidden...

#4t1#Chorus
#4t2#e---------------------------------------------|\ 
B---------------------------------------------| \ 
G---1010101010101010---------33333333---------|  \
D---1010101010101010-3333333-33333333-33333333|  / X 2
A---8-8-8-8-8-8-8-8--3333333-11111111-33333333| / 
E--------------------1111111----------11111111|/#/4t2##/4t1#
 "I'm learning to fall...

#5t1#Verse 2
#5t2#e-----------------------------------------------|\
B-----------------------------------------------| \
G---1010101010101010----------55555555----------|  \
D---1010101010101010-55555555-55555555-88888888-|  / X 2
A---8-8-8-8-8-8-8-8--55555555-33333333-88888888-| /
E--------------------33333333----------66666666-|/#/5t2##/5t1#
#6t1# "Could you be with him...
#6t2#e--33333333-33333333--------------------|
B--33333333-44444444-66666666-11111111--|\
G--33333333-33333333-77777777-22222222--| \
D--44444444-44444444-88888888-33333333--| / X 1 
A---------------------------------------|/
E---------------------------------------|#/6t2##/6t1#
 "You Change your close and your hair...

#7t1#Pre-Chorus
#7t2#e------3---3~--|\            e--------------|\
B------3---4~--| \           B--------------| \
G------3---3~--|  \          G--------------|  \
D------5---5~--|  / X 2      D------3-------|  / X 1 
A--------------| /           A------3-------| /
E--------------|/            E------1-------|/            #/7t2##/7t1#
"I'm uninvited...                 ... Inside"

#8t1#Chorus
#8t2#e---------------------------------------------|\ 
B---------------------------------------------| \ 
G---1010101010101010---------33333333---------|  \
D---1010101010101010-3333333-33333333-33333333|  / X 2
A---8-8-8-8-8-8-8-8--3333333-11111111-33333333| / 
E--------------------1111111----------11111111|/#/8t2##/8t1#
 "I'm learning to fall...

#9t1#Riff
#9t2#e-----------------------------------------------------|\ 
B-----------------------------------------------------| \ 
G---1010101010101010---------33333333-----------------|  \
D---1010101010101010-3333333-33333333-33333333---|--5-|  / X 2
A---8-8-8-8-8-8-8-8--3333333-11111111-33333333---|--5-| / 
E--------------------1111111----------11111111---|--3-|/#/9t2##/9t1#
 "I can't stop dreaming...                         Me"

#10t1#Chorus (Fade out
#10t2#e---------------------------------------------|\ 
B---------------------------------------------| \ 
G---1010101010101010---------33333333---------|  \
D---1010101010101010-3333333-33333333-33333333|  / Fade out... 
A---8-8-8-8-8-8-8-8--3333333-11111111-33333333| / 
E--------------------1111111----------11111111|/#/10t2##/10t1#
 "I'm learning to fall...
Composición: Colaboración y revisión: