Heart Heart Heartbreak

Boys Like Girls

Tono: G
(versão original afinação DADGBE)

#1t1#(intro / versos)
#1t2#|-------|-----------------------------------|
|-------|-----------------------------------|
|-------|-----------------------------------|
|--9--9-|--9---12---5----7------------------|
|--9--9-|--9---12---5----7------------------|
|--7--7-|--7---10---3----5------------------|#/1t2##/1t1#

#2t1#(pre Chorus)
#2t2#|-------------------------------------------|
|-------------------------------------------|
|-------------------------------------------|
|--555555-------77--------------------------|
|--555555-------77--------------------------|
|--333333-------55--------------------------|
   * * * * * *#/2t2##/2t1#

#3t1#(chorus)
#3t2#|-------------------------------------------|
|-------------------------------------------|
|-------------------------------------------|
|---12---7---10---5-------------------------|
|---12---7---10---5-------------------------|
|---10---5----8---3-------------------------|#/3t2##/3t1#

#4t1#(bridge)
#4t2#|-------------------------------------------|
|-------------------------------------------|
|-------------------------------------------|
|--77--77---99---55-------------------------|
|--77--77---99---55-------------------------|
|--55--55---77---33-------------------------|#/4t2##/4t1#

#5t1#(solo)
#5t2#|---------------------------------------------------|
|---------------------7~-------------------7b8r7----|
|-7/9~--9-7-9~--9-7-9-----7h9~-7-9-7-9~--9-------7~-|
|---------------------------------------------------|
|---------------------------------------------------|
|---------------------------------------------------|#/5t2##/5t1#

#6t1##6t2#|-10p7------10p7------10p7-----10p7------|
|------10p7------10p7-----10p7------10p7-|
|----------------------------------------|
|----------------------------------------|
|----------------------------------------|
|----------------------------------------|#/6t2##/6t1#

#7t1##7t2#|-12p10-------12p10-------12p10-------|
|-------12p10-------12p10-------12p10-|
|-------------------------------------|
|-------------------------------------|
|-------------------------------------|
|-------------------------------------|#/7t2##/7t1#

#8t1##8t2#|-14p12-------14p12-------17p14-------17p14-------|
|-------15p12-------15p12-------17p15-------17p15-|
|-------------------------------------------------|
|-------------------------------------------------|
|-------------------------------------------------|
|-------------------------------------------------|#/8t2##/8t1#

#9t1##9t2#|-17b19-17b19r17~\--|
|-------------------|
|-------------------|
|-------------------|
|-------------------|
|-------------------|#/9t2##/9t1#

#10t1##10t2#|-9\-|
|-9\-|
|-7\-|#/10t2##/10t1#

(**  Palm-Mute)
Composición: Colaboración y revisión: Natalia Moncks