Dammit

Blink-182

A5
12
X022XX
C5
134
X355XX
F5
134
133XXX
G5
134
355XXX
Tono: C
(Intro)


Riff:

E|--------------------------------
B|--------------------------------
G|--------------------------------
D|------0--0-2-----0--0-2-------0-
A|--3-3---------------------0-0---
E|-------------3-3----------------

E|---------------------|       
B|---------------------|       
G|---------------------|       
D|-0-2------2--2-0-----|  (4x) 
A|---------------------|       
E|------1-1------------|       


C5           G5          A5     
It's alright to tell me what you
         F5
 think about me
C5          G5        A5    
I won't try to argue or hold it 
      F5
against you
C5          G5            A5    
I know that your leavin' you 
         F5
must have your reasons
C5         G5          A5       
the season is calling your 
      F5
pictures are falling down

E|--------------------------------
B|--------------------------------
G|--------------------------------
D|------0--0-2-----0--0-2-------0-
A|--3-3---------------------0-0---
E|-------------3-3----------------

E|---------------------|     
B|---------------------|     
G|---------------------|     
D|-0-2------2--2-0-----| 2x  
A|---------------------|     
E|------1-1------------|     


C5             G5             A5
The steps that I retrace the sad
                F5
 look on your face
C5             G5             A5
the timing and structure did you
                F5
 hear he f*cked her
C5             G5             A5
a day late a buck short I'm 
             F5
writing the report
C5 G5 A5 on losing and failing when I F5 move I'm flailing now C5 G5 And it's happened once again I'll A5 turn to a friend F5 Someone that understands and sees C5 through the master plan G5 but everybody's gone and I've been A5 here for too long F5 to face this on my own well I guess this is growing up E|-------------------------------- B|-------------------------------- G|-------------------------------- D|------0-0-2-----0-0-2-------0-0- A|--3-3-------------------0-0----- E|-------------3-3---------------- E|--------------| B|--------------| G|--------------| D|2------2-2-0--| 2x A|--------------| E|---1-1--------| C5 G5 A5 And maybe I'll see you at a F5 movie sneek preview C5 G5 A5 You'll show up and walk by on F5 the arm of that guy C5 G5 A5 and I'll smile and you'll wave F5 we'll pretend it's ok C5 G5 A5 this charade it won't last when F5 he's gone I won't come back C5 G5 And it's happened once again I'll A5 turn to a friend F5 Someone that understands and sees C5 through the master plan G5 but everybody's gone and I've been A5 here for too long F5 to face this on your own well I guess this is growing up E|-0------0----0------0-----0---- B|--1---3---1---1---3---1-3---1-- G|---0-----------0--------------- D|------------------------------- A|------------------------------- E|------------------------------- E|0------0----0------0-----0-----| B|-1---3---1---1---3---1-3---3-1-| G|--0-----------0----------------| D|-------------------------------| A|-------------------------------| E|-------------------------------| E|-------------------------------- B|-------------------------------- G|-------------------------------- D|------0-0-2-----0-0-2-------0-0- A|--3-3-------------------0-0----- E|-------------3-3---------------- E|--------------| B|--------------| G|--------------| D|2------2-2-0--| 4x A|--------------| E|---1-1--------|
Composición: Mark Hoppus / Scott Mad Dog Raynor / Tom DeLongeColaboración y revisión: Rafael SouzaAriel pudwillAlícia SaldivarFred Skywalkery más 10

Utilizamos cookies para personalizar sua experiência. Ao acessar o site, você concorda com a nossa Política de Privacidade.