Heaven And Hell

Black Sabbath

B
234
X24442
C
123
X32010
D
123
XX0232
D/A
123
X0X232
D/F#
1234
2X0232
Em5
12
022000
G
123
320003
Tono: G

Figure 1

|--------------------------------|
|--------------------------------|
|--------------------------------|
|9---------------11------12------|
|7---------------9-------10------|
|--------------------------------|

||--------------------------------| 
||--------------------------------| 
||--------------------------------| 
||5---------------7-7----7--------| 
||3---------------5-5----5--------| 
||--------------------------------| 




|--------------------------------|
|--------------------------------|
|--------------------------------|
|9---------------11------12------|
|7---------------9-------10------|
|--------------------------------|

||--------------------------------| 
||--------------------------------| 
||--------------------------------| 
||14--1211-9----------------------| 
||12--10-9-7----------------------| 
||--------------------------------| 




|--------------------------------|
|--------------------------------|
|--------------------------------|
|9---------------11------12------|
|7---------------9-------10------|
|--------------------------------|

||--------------------------------| 
||--------------------------------| 
||--------------------------------| 
||5---------------7-7----7-7------| 
||3---------------5-5----5-5------| 
||--------------------------------| 



                                                          H   H

|--------------------------------|
|--------------------------------|
|--------------------------------|
|9---------------11------12------|
|7---------------9-------10------|
|--------------------------------|

||--------------------------------| 
||--------------------------------| 
||---------------------------___--| 
||14--1211-9-------------___-0-2--| 
||12--10-9-7-------------0-2------| 
||--------------------------------| 




Figure 2

|--------------------------------|
|--------------------------------|
|--------------------------------|
|--------------------------------|
|--------------------------------|
|0---0-0-0---0-0-0---0-0-0---0-0-|

||--------------------------------| 
||--------------------------------| 
||--------------------------------| 
||--------------------------------| 
||--------------------------------| 
||0---0-0-0---0-0-0---0-0-0---0-0-| 




|--------------------------------|
|--------------------------------|
|--------------------------------|
|--------------------------------|
|--------------------------------|
|0---0-0-0---0-0-0---0-0-0---0-0-|

||--------------------------------| 
||--------------------------------| 
||--------------------------------| 
||--------------------------------| 
||--------------------------------| 
||0---0-0-0---0-0-0---0-0-0---0-0-| 




Fig 2
Sing me a song, you're a singer.
Do me all wrong, you're a bringer of
 evil
The devil is never a maker .
The less that you give, you're a 
taker.


        C                D
So it's on and on and on,  it's 
heaven and hell
Oh, well.


Figure 3 (backing guitar plays fig 
2)
                            S

|--------------------------------|
|------------------------12-\----|
|------------------------12-\----|
|------------------------12-\----|
|----9-10-7----------------------|
|--------------------------------|

||--------------------------------| 
||--------------------------------| 
||--------------------------------| 
||---------7----------------------| 
||----9-10--------10-9-7----------| 
||--------------------------------| 




                            S

|--------------------------------|
|------------------------12-\----|
|------------------------12-\----|
|------------------------12-\----|
|----9-10-7----------------------|
|--------------------------------|

||--------------------------------| 
||--------------------------------| 
||--------------------------------| 
||---------7----------------------| 
||----9-10--------10-9-7----------| 
||--------------------------------| 





|--------------------------------|
|--------------------------------|
|--------------------------------|
|9-------------------------------|
|7-------------------------------|
|--------------------------------|



Fig 2
Lovers of life's not a sinner
The ending is just a beginner.
The close you get to the meaning
The sooner you know that You're 
dreaming.
         C                D
So  it's on and on and on,
         C                D
Oh, it's on and on and on.
         C                D
It  goes on and on and on.  Heaven 
and Hell


Fig 1(not the last four notes.) and then Fig 2 I can tell Oh, ooh, Yeah,yeah yeah Fig 2 Well if it seems to be real, it's illusion. For ev'ry moment of truth there's confusion in life. Lover can be seen as the answer. But nobody bleeds for the dancer. C D fig2 And it's on and on and on, on and on and on and on and on and on on and on and on and on and on and on. continue Fig2 Solo1 B gradually release bend P |----------|----------|----------| |------____|______ ---|----------| |-___-/----|------\---|----------| |-7(9)-----|------(7)-|----------| |----------|----------|----------| |----------|----------|0---------| ||----------|----------| ||----------|-12-\-----| ||-----___--|-12-\-----| ||----14-12-|----------| ||----------|----------| ||----------|----------| ~~~~ ~~~~ ~~~~ H H S |--------------------------------- |--------------------------------- |14-12----14-12-------12-----___-- |------14-------14-14----12-12-14- |--------------------------------- |--------------------------------- ||-----|--------------------------| ||-----|--------------------------| ||12---|-___----------------------| ||---12|12-14-14-14-14-\----------| ||-----|--------------------------| ||-----|--------------------------| B H |----------|--____----|----------| |----------|-(15)17---|----------| |----------|----------|----------| |----------|----------|----------| |----------|----------|----------| |----------|----------|----------| ||--------------------------------- ||12-15-15-12---------------------- ||------------14-14-12-----___----- ||---------------------14-12-14-14- ||--------------------------------- ||--------------------------------- ||-----| ||-----| ||-----| ||12---| ||---14| ||-----| S H H H |--------------------------------| |--------------------------------| |--------------------------------| |--------------------------------| |12-14-14-10-12-12-9-10-9-10-9-10| |--------------------------------| ||---------------------------___-- ||-------------------___-12-12-15- ||----------___-12--12-14--------- ||---12-12-12-14--14-------------- ||/14----------------------------- ||-------------------------------- ||------| ||15-15-| ||------| ||------| ||------| ||------| H ___ H H H H |12-15-12-15-___---------------- |-----------12-15-15-15-___----- |----------------------12-14-14- |------------------------------- |------------------------------- |------------------------------- ||--------------| ||----___-------| ||14-12-14--___-| ||---------12-14| ||--------------| ||--------------| H H B |------------------------------- |------___---------------------- |-___-12-14-14-14-12---------12- |12-14---------------14-14-14--- |------------------------------- |------------------------------- ||--|-------------------------12---| ||--|-___--12-15--12-15--12-15--12-| ||12|14(16)-----14-----14----------| ||--|------------------------------| ||--|------------------------------| ||--|------------------------------| S B ___ |---12-----|--___-----14-15-17-15- |-15-------|-15(17)-17------------ |----------|---------------------- |----------|---------------------- |----------|---------------------- |----------|---------------------- |||----------15/17--| |||-17-17-17--------| |||-----------------| |||-----------------| |||-----------------| |||-----------------| B B ___ ___ B |17(19)-17(19)-17-15----15------- |--------------------19----19-17- |-------------------------------- |-------------------------------- |-------------------------------- |-------------------------------- ||-----|-___----------------------| ||15-17|17(20)---------------17---| ||-----|------------------16----16| ||-----|--------------------------| ||-----|--------------------------| ||-----|--------------------------| B |---___----|-----|-----|-----|---- |--15(17)--|-----|-----|-----|---- |----------|-----|-----|-----|---- |----------|-----|-----|-----|---- |----------|-----|-----|-----|---- |----------|-----|-----|-----|---- gradually release bend B~~~~~~ B_______________ B S |----------|--19------|-/--------| |---___----|----17-20-|-20(22)---| |--19(21)--|19--------|----------| |----------|----------|----------| |----------|----------|----------| |----------|----------|----------| ||-------\--|--___-----|22--___---| ||------20--|-22(24)---|---17/20--| ||----------|----------|----------| ||----------|----------|----------| ||----------|----------|----------| ||----------|----------|----------| ~~~~~~~~~~~ B~~~~~~~~~ B H P |---___----|----------|--______--- |--20(22)--|----------|-/------\-- |----------|-----21---|-19----21-- |----------|---21--21-|----------- |----------|----------|----------- |----------|----------|----------- ||----------|------------______---| ||15--------|-----------/------\--| ||--16-15-14|-------12--12-14-12--| ||----------|---------14--------14| ||----------|---------------------| ||----------|---------------------| H S ________ B ~~~~~~~~ / \ ___ |-------------------14-15--|-14--- |-------------12-15--------|------ |-------12-14--------------|------ |-12-14--------------------|------ |--------------------------|------ |--------------------------|------ ||15/17-----15-17|-(19)-15--------| ||---------------|--------17------| ||---------------|----------------| ||---------------|----------------| ||---------------|----------------| ||---------------|----------------| ~ R B R B R B R B R B R B R B S _____________________________________________ |----------| |--20/22---| |----------| |----------| |----------| |----------| ||/-----------------------|---------------------\-------| ||(24)22(24)22(24)22(24)22|(24)22(24)22(24)22(24)-------| ||------------------------|-----------------------------| ||------------------------|-----------------------------| ||------------------------|-----------------------------| ||------------------------|-----------------------------| Em5 say that life's a carrousel, D/F# spinning fast you've got to ride it well. G The world if full of kings and queens who D/A blind your eyes then steal your dreams. Em5 It's heaven and hell. D/F# Oh well . Em5 And they'll tell you that black is really white, D/F# the moon is just the sun at night; G And when you walk in golden halls, you D/A get to keep the gold that falls. Em5 It's heaven and hell. D/F# No,no Em5 Fool,fool D/F# G You got to bleed for the dancer. D/A Em5 Fool,fool D/F# G Look for the answer. D/A Em5 Fool,fool,fool. Slower B R B B |----------|----------|----------| |----------|----------|----------| |--________|__________|______----| |-/--------|----------|------\---| |-5--(7)---|-5--(7)---|-5--(7)---| |----------|----------|----------|
Composición: Bill Ward / Geezer Butler / Ronnie James Dio / Tony IommiColaboración y revisión: Rodrigo Matsuura

Utilizamos cookies e outras tecnologias semelhantes para melhorar e personalizar sua experiência de uso. Ao navegar nos produtos, você concorda com as condições descritas em nossa Política de Privacidade.